  0
SECTION
  2
HEADER
  9
$ACADVER
  1
AC1015
  9
$ACADMAINTVER
 70
     6
  9
$DWGCODEPAGE
  3
ANSI_1254
  9
$INSBASE
 10
0.0
 20
0.0
 30
0.0
  9
$EXTMIN
 10
0.0
 20
0.0
 30
0.0
  9
$EXTMAX
 10
279.4
 20
215.9
 30
0.0
  9
$LIMMIN
 10
0.0
 20
0.0
  9
$LIMMAX
 10
279.4
 20
215.9
  9
$ORTHOMODE
 70
     0
  9
$REGENMODE
 70
     1
  9
$FILLMODE
 70
     1
  9
$QTEXTMODE
 70
     0
  9
$MIRRTEXT
 70
     1
  9
$LTSCALE
 40
1.0
  9
$ATTMODE
 70
     1
  9
$TEXTSIZE
 40
3.5
  9
$TRACEWID
 40
1.0
  9
$TEXTSTYLE
  7
Standard
  9
$CLAYER
  8
0
  9
$CELTYPE
  6
ByLayer
  9
$CECOLOR
 62
   256
  9
$CELTSCALE
 40
1.0
  9
$DISPSILH
 70
     0
  9
$DIMSCALE
 40
1.0
  9
$DIMASZ
 40
3.5
  9
$DIMEXO
 40
1.0
  9
$DIMDLI
 40
3.75
  9
$DIMRND
 40
0.0
  9
$DIMDLE
 40
0.0
  9
$DIMEXE
 40
1.0
  9
$DIMTP
 40
0.0
  9
$DIMTM
 40
0.0
  9
$DIMTXT
 40
3.5
  9
$DIMCEN
 40
2.5
  9
$DIMTSZ
 40
0.0
  9
$DIMTOL
 70
     0
  9
$DIMLIM
 70
     0
  9
$DIMTIH
 70
     1
  9
$DIMTOH
 70
     1
  9
$DIMSE1
 70
     0
  9
$DIMSE2
 70
     0
  9
$DIMTAD
 70
     1
  9
$DIMZIN
 70
     0
  9
$DIMBLK
  1

  9
$DIMASO
 70
     1
  9
$DIMSHO
 70
     1
  9
$DIMPOST
  1

  9
$DIMAPOST
  1

  9
$DIMALT
 70
     0
  9
$DIMALTD
 70
     3
  9
$DIMALTF
 40
0.0393700787
  9
$DIMLFAC
 40
1.0
  9
$DIMTOFL
 70
     1
  9
$DIMTVP
 40
0.0
  9
$DIMTIX
 70
     0
  9
$DIMSOXD
 70
     0
  9
$DIMSAH
 70
     0
  9
$DIMBLK1
  1

  9
$DIMBLK2
  1

  9
$DIMSTYLE
  2
ISO-25
  9
$DIMCLRD
 70
     0
  9
$DIMCLRE
 70
     0
  9
$DIMCLRT
 70
     0
  9
$DIMTFAC
 40
1.0
  9
$DIMGAP
 40
1.524
  9
$DIMJUST
 70
     0
  9
$DIMSD1
 70
     0
  9
$DIMSD2
 70
     0
  9
$DIMTOLJ
 70
     0
  9
$DIMTZIN
 70
     0
  9
$DIMALTZ
 70
     0
  9
$DIMALTTZ
 70
     0
  9
$DIMUPT
 70
     0
  9
$DIMDEC
 70
     2
  9
$DIMTDEC
 70
     2
  9
$DIMALTU
 70
     2
  9
$DIMALTTD
 70
     3
  9
$DIMTXSTY
  7
Standard
  9
$DIMAUNIT
 70
     0
  9
$DIMADEC
 70
     2
  9
$DIMALTRND
 40
0.0
  9
$DIMAZIN
 70
     0
  9
$DIMDSEP
 70
    44
  9
$DIMATFIT
 70
     3
  9
$DIMFRAC
 70
     0
  9
$DIMLDRBLK
  1

  9
$DIMLUNIT
 70
     2
  9
$DIMLWD
 70
    -2
  9
$DIMLWE
 70
    -2
  9
$DIMTMOVE
 70
     0
  9
$LUNITS
 70
     2
  9
$LUPREC
 70
     2
  9
$SKETCHINC
 40
1.0
  9
$FILLETRAD
 40
10.0
  9
$AUNITS
 70
     0
  9
$AUPREC
 70
     2
  9
$MENU
  1
.
  9
$ELEVATION
 40
0.0
  9
$PELEVATION
 40
0.0
  9
$THICKNESS
 40
0.0
  9
$LIMCHECK
 70
     0
  9
$CHAMFERA
 40
0.0
  9
$CHAMFERB
 40
0.0
  9
$CHAMFERC
 40
0.0
  9
$CHAMFERD
 40
0.0
  9
$SKPOLY
 70
     0
  9
$TDCREATE
 40
2459741.606135579
  9
$TDUCREATE
 40
2459741.481135579
  9
$TDUPDATE
 40
2459741.606135753
  9
$TDUUPDATE
 40
2459741.481135753
  9
$TDINDWG
 40
0.0000000116
  9
$TDUSRTIMER
 40
0.0000000116
  9
$USRTIMER
 70
     1
  9
$ANGBASE
 50
0.0
  9
$ANGDIR
 70
     0
  9
$PDMODE
 70
     0
  9
$PDSIZE
 40
-1.0
  9
$PLINEWID
 40
0.0
  9
$SPLFRAME
 70
     0
  9
$SPLINETYPE
 70
     6
  9
$SPLINESEGS
 70
     8
  9
$HANDSEED
  5
102
  9
$SURFTAB1
 70
     6
  9
$SURFTAB2
 70
     6
  9
$SURFTYPE
 70
     6
  9
$SURFU
 70
     6
  9
$SURFV
 70
     6
  9
$UCSBASE
  2

  9
$UCSNAME
  2

  9
$UCSORG
 10
0.0
 20
0.0
 30
0.0
  9
$UCSXDIR
 10
1.0
 20
0.0
 30
0.0
  9
$UCSYDIR
 10
0.0
 20
1.0
 30
0.0
  9
$UCSORTHOREF
  2

  9
$UCSORTHOVIEW
 70
     0
  9
$UCSORGTOP
 10
0.0
 20
0.0
 30
0.0
  9
$UCSORGBOTTOM
 10
0.0
 20
0.0
 30
0.0
  9
$UCSORGLEFT
 10
0.0
 20
0.0
 30
0.0
  9
$UCSORGRIGHT
 10
0.0
 20
0.0
 30
0.0
  9
$UCSORGFRONT
 10
0.0
 20
0.0
 30
0.0
  9
$UCSORGBACK
 10
0.0
 20
0.0
 30
0.0
  9
$PUCSBASE
  2

  9
$PUCSNAME
  2

  9
$PUCSORG
 10
0.0
 20
0.0
 30
0.0
  9
$PUCSXDIR
 10
1.0
 20
0.0
 30
0.0
  9
$PUCSYDIR
 10
0.0
 20
1.0
 30
0.0
  9
$PUCSORTHOREF
  2

  9
$PUCSORTHOVIEW
 70
     0
  9
$PUCSORGTOP
 10
0.0
 20
0.0
 30
0.0
  9
$PUCSORGBOTTOM
 10
0.0
 20
0.0
 30
0.0
  9
$PUCSORGLEFT
 10
0.0
 20
0.0
 30
0.0
  9
$PUCSORGRIGHT
 10
0.0
 20
0.0
 30
0.0
  9
$PUCSORGFRONT
 10
0.0
 20
0.0
 30
0.0
  9
$PUCSORGBACK
 10
0.0
 20
0.0
 30
0.0
  9
$USERI1
 70
     0
  9
$USERI2
 70
     0
  9
$USERI3
 70
     0
  9
$USERI4
 70
     0
  9
$USERI5
 70
     0
  9
$USERR1
 40
0.0
  9
$USERR2
 40
0.0
  9
$USERR3
 40
0.0
  9
$USERR4
 40
0.0
  9
$USERR5
 40
0.0
  9
$WORLDVIEW
 70
     1
  9
$SHADEDGE
 70
     3
  9
$SHADEDIF
 70
    70
  9
$TILEMODE
 70
     1
  9
$MAXACTVP
 70
    64
  9
$PINSBASE
 10
0.0
 20
0.0
 30
0.0
  9
$PLIMCHECK
 70
     0
  9
$PEXTMIN
 10
1.0000000000E+20
 20
1.0000000000E+20
 30
1.0000000000E+20
  9
$PEXTMAX
 10
-1.0000000000E+20
 20
-1.0000000000E+20
 30
-1.0000000000E+20
  9
$PLIMMIN
 10
0.0
 20
0.0
  9
$PLIMMAX
 10
420.0
 20
297.0
  9
$UNITMODE
 70
     0
  9
$VISRETAIN
 70
     1
  9
$PLINEGEN
 70
     0
  9
$PSLTSCALE
 70
     1
  9
$TREEDEPTH
 70
  3020
  9
$CMLSTYLE
  2
Standard
  9
$CMLJUST
 70
     0
  9
$CMLSCALE
 40
20.0
  9
$PROXYGRAPHICS
 70
     1
  9
$MEASUREMENT
 70
     1
  9
$CELWEIGHT
370
    -1
  9
$ENDCAPS
280
     0
  9
$JOINSTYLE
280
     0
  9
$LWDISPLAY
290
     1
  9
$INSUNITS
 70
     4
  9
$HYPERLINKBASE
  1

  9
$STYLESHEET
  1

  9
$XEDIT
290
     1
  9
$CEPSNTYPE
380
     0
  9
$PSTYLEMODE
290
     1
  9
$FINGERPRINTGUID
  2
{d4de79c9-7a2c-4b3b-b9d5-5774267e4e88}
  9
$VERSIONGUID
  2
{FAEB1C32-E019-11D5-929B-00C0DF256EC4}
  9
$EXTNAMES
290
     1
  9
$PSVPSCALE
 40
0.0
  9
$OLESTARTUP
290
     0
  0
ENDSEC
  0
SECTION
  2
CLASSES
  0
CLASS
  1
ACDBDICTIONARYWDFLT
  2
AcDbDictionaryWithDefault
  3
ObjectDBX Classes
 90
        0
280
     0
281
     0
  0
CLASS
  1
VISUALSTYLE
  2
AcDbVisualStyle
  3
ObjectDBX Classes
 90
     4095
280
     0
281
     0
  0
CLASS
  1
MATERIAL
  2
AcDbMaterial
  3
ObjectDBX Classes
 90
     1153
280
     0
281
     0
  0
CLASS
  1
SCALE
  2
AcDbScale
  3
ObjectDBX Classes
 90
     1153
280
     0
281
     0
  0
CLASS
  1
TABLESTYLE
  2
AcDbTableStyle
  3
ObjectDBX Classes
 90
     4095
280
     0
281
     0
  0
CLASS
  1
MLEADERSTYLE
  2
AcDbMLeaderStyle
  3
ACDB_MLEADERSTYLE_CLASS
 90
     4095
280
     0
281
     0
  0
CLASS
  1
SUN
  2
AcDbSun
  3
SCENEOE
 90
     1153
280
     0
281
     0
  0
CLASS
  1
ACDBPLACEHOLDER
  2
AcDbPlaceHolder
  3
ObjectDBX Classes
 90
        0
280
     0
281
     0
  0
CLASS
  1
LAYOUT
  2
AcDbLayout
  3
ObjectDBX Classes
 90
        0
280
     0
281
     0
  0
ENDSEC
  0
SECTION
  2
TABLES
  0
TABLE
  2
VPORT
  5
8
330
0
100
AcDbSymbolTable
 70
     1
  0
VPORT
  5
29
330
8
100
AcDbSymbolTableRecord
100
AcDbViewportTableRecord
  2
*Active
 70
     0
 10
0.0
 20
0.0
 11
1.0
 21
1.0
 12
139.7
 22
107.95
 13
0.0
 23
0.0
 14
10.0
 24
10.0
 15
10.0
 25
10.0
 16
0.0
 26
0.0
 36
1.0
 17
0.0
 27
0.0
 37
0.0
 40
215.9
 41
1.2941176471
 42
50.0
 43
0.0
 44
0.0
 50
0.0
 51
0.0
 71
     0
 72
  2000
 73
     1
 74
     3
 75
     0
 76
     0
 77
     0
 78
     0
281
     0
 65
     1
110
0.0
120
0.0
130
0.0
111
1.0
121
0.0
131
0.0
112
0.0
122
1.0
132
0.0
 79
     0
146
0.0
  0
ENDTAB
  0
TABLE
  2
LTYPE
  5
5
330
0
100
AcDbSymbolTable
 70
     6
  0
LTYPE
  5
14
330
5
100
AcDbSymbolTableRecord
100
AcDbLinetypeTableRecord
  2
ByBlock
 70
     0
  3

 72
    65
 73
     0
 40
0.0
  0
LTYPE
  5
15
330
5
100
AcDbSymbolTableRecord
100
AcDbLinetypeTableRecord
  2
ByLayer
 70
     0
  3

 72
    65
 73
     0
 40
0.0
  0
LTYPE
  5
16
330
5
100
AcDbSymbolTableRecord
100
AcDbLinetypeTableRecord
  2
Continuous
 70
     0
  3
Solid line
 72
    65
 73
     0
 40
0.0
  0
LTYPE
  5
6E
330
5
100
AcDbSymbolTableRecord
100
AcDbLinetypeTableRecord
  2
HIDDEN
 70
     0
  3
Hidden __ __ __ __ __ __ __ __ __ __ __ __ __ __
 72
    65
 73
     2
 40
1.905
 49
1.27
 74
     0
 49
-0.635
 74
     0
  0
LTYPE
  5
6F
330
5
100
AcDbSymbolTableRecord
100
AcDbLinetypeTableRecord
  2
PHANTOM
 70
     0
  3
Phantom ______  __  __  ______  __  __  ______
 72
    65
 73
     6
 40
12.7
 49
6.35
 74
     0
 49
-1.27
 74
     0
 49
1.27
 74
     0
 49
-1.27
 74
     0
 49
1.27
 74
     0
 49
-1.27
 74
     0
  0
LTYPE
  5
70
330
5
100
AcDbSymbolTableRecord
100
AcDbLinetypeTableRecord
  2
CENTER
 70
     0
  3
Center ____ _ ____ _ ____ _ ____ _ ____ _ ____
 72
    65
 73
     4
 40
10.16
 49
6.35
 74
     0
 49
-1.27
 74
     0
 49
1.27
 74
     0
 49
-1.27
 74
     0
  0
LTYPE
  5
71
330
5
100
AcDbSymbolTableRecord
100
AcDbLinetypeTableRecord
  2
CENTERX2
 70
     0
  3
Center (2x) ________  __  ________  __  _____
 72
    65
 73
     4
 40
20.32
 49
12.7
 74
     0
 49
-2.54
 74
     0
 49
2.54
 74
     0
 49
-2.54
 74
     0
  0
LTYPE
  5
72
330
5
100
AcDbSymbolTableRecord
100
AcDbLinetypeTableRecord
  2
DOT2
 70
     0
  3
Dot (.5x) ........................................
 72
    65
 73
     2
 40
0.635
 49
0.0
 74
     0
 49
-0.635
 74
     0
  0
ENDTAB
  0
TABLE
  2
LAYER
  5
2
330
0
100
AcDbSymbolTable
 70
    17
  0
LAYER
  5
10
330
2
100
AcDbSymbolTableRecord
100
AcDbLayerTableRecord
  2
0
 70
     0
 62
     7
  6
Continuous
370
    -3
390
F
  0
LAYER
  5
73
330
2
100
AcDbSymbolTableRecord
100
AcDbLayerTableRecord
  2
FORMAT
 70
     0
 62
     7
  6
Continuous
370
    -3
390
F
  0
LAYER
  5
74
330
2
100
AcDbSymbolTableRecord
100
AcDbLayerTableRecord
  2
YARDIMCI_GEOMETRI
 70
     0
 62
    -6
  6
Continuous
290
     0
370
    -3
390
F
  0
LAYER
  5
75
330
2
100
AcDbSymbolTableRecord
100
AcDbLayerTableRecord
  2
SAYFA_CERCEVESI
 70
     0
 62
     7
  6
Continuous
370
    25
390
F
  0
LAYER
  5
76
330
2
100
AcDbSymbolTableRecord
100
AcDbLayerTableRecord
  2
ANTET
 70
     0
 62
     7
  6
Continuous
370
    -3
390
F
  0
LAYER
  5
77
330
2
100
AcDbSymbolTableRecord
100
AcDbLayerTableRecord
  2
OLCU
 70
     0
 62
   150
  6
Continuous
370
    -3
390
F
  0
LAYER
  5
78
330
2
100
AcDbSymbolTableRecord
100
AcDbLayerTableRecord
  2
METIN
 70
     0
 62
    96
  6
Continuous
370
    -3
390
F
  0
LAYER
  5
79
330
2
100
AcDbSymbolTableRecord
100
AcDbLayerTableRecord
  2
BALON
 70
     0
 62
     5
  6
Continuous
370
    -3
390
F
  0
LAYER
  5
7A
330
2
100
AcDbSymbolTableRecord
100
AcDbLayerTableRecord
  2
VURGU
 70
     0
 62
     7
  6
Continuous
370
    -3
390
F
  0
LAYER
  5
7B
330
2
100
AcDbSymbolTableRecord
100
AcDbLayerTableRecord
  2
SILIK
 70
     0
 62
     7
  6
Continuous
370
    -3
390
F
  0
LAYER
  5
7C
330
2
100
AcDbSymbolTableRecord
100
AcDbLayerTableRecord
  2
MODEL
 70
     0
 62
     7
  6
Continuous
370
    -3
390
F
  0
LAYER
  5
7D
330
2
100
AcDbSymbolTableRecord
100
AcDbLayerTableRecord
  2
DETAYLANDıRMA
 70
     0
 62
   190
  6
Continuous
370
    -3
390
F
  0
LAYER
  5
7E
330
2
100
AcDbSymbolTableRecord
100
AcDbLayerTableRecord
  2
TOLERANS
 70
     0
 62
   230
  6
Continuous
370
    -3
390
F
  0
LAYER
  5
7F
330
2
100
AcDbSymbolTableRecord
100
AcDbLayerTableRecord
  2
MERKEZ_CIZGILERI
 70
     0
 62
    30
  6
Continuous
370
    -3
390
F
  0
LAYER
  5
80
330
2
100
AcDbSymbolTableRecord
100
AcDbLayerTableRecord
  2
KESIT-DETAY_CIZGILERI
 70
     0
 62
     7
  6
Continuous
370
    -3
390
F
  0
LAYER
  5
81
330
2
100
AcDbSymbolTableRecord
100
AcDbLayerTableRecord
  2
\U+041E\U+0421\U+0415\U+0412\U+042B\U+0415
 70
     0
 62
     7
  6
Continuous
370
    -3
390
F
  0
LAYER
  5
82
330
2
100
AcDbSymbolTableRecord
100
AcDbLayerTableRecord
  2
\U+0412\U+041E\U+0414\U+042F\U+041D\U+042B\U+0415_\U+0417\U+041D\U+0410\U+041A\U+0418
 70
     0
 62
    11
  6
Continuous
370
    -3
390
F
  0
ENDTAB
  0
TABLE
  2
STYLE
  5
3
330
0
100
AcDbSymbolTable
 70
     1
  0
STYLE
  5
11
330
3
100
AcDbSymbolTableRecord
100
AcDbTextStyleTableRecord
  2
Standard
 70
     0
 40
0.0
 41
1.0
 50
0.0
 71
     0
 42
3.5
  3
txt
  4

  0
ENDTAB
  0
TABLE
  2
VIEW
  5
6
330
0
100
AcDbSymbolTable
 70
     0
  0
ENDTAB
  0
TABLE
  2
UCS
  5
7
330
0
100
AcDbSymbolTable
 70
     0
  0
ENDTAB
  0
TABLE
  2
APPID
  5
9
330
0
100
AcDbSymbolTable
 70
     1
  0
APPID
  5
12
330
9
100
AcDbSymbolTableRecord
100
AcDbRegAppTableRecord
  2
ACAD
 70
     0
  0
ENDTAB
  0
TABLE
  2
DIMSTYLE
  5
A
330
0
100
AcDbSymbolTable
 70
     1
100
AcDbDimStyleTable
  0
DIMSTYLE
105
27
330
A
100
AcDbSymbolTableRecord
100
AcDbDimStyleTableRecord
  2
ISO-25
 70
     0
 41
2.5
 42
0.625
 43
3.75
 44
1.25
 73
     0
 74
     0
 77
     1
 78
     8
140
2.5
141
2.5
143
0.0393700787
147
0.625
171
     3
172
     1
178
     0
271
     2
272
     2
274
     3
278
    44
283
     0
284
     8
340
11
  0
ENDTAB
  0
TABLE
  2
BLOCK_RECORD
  5
1
330
0
100
AcDbSymbolTable
 70
     5
  0
BLOCK_RECORD
  5
1F
330
1
100
AcDbSymbolTableRecord
100
AcDbBlockTableRecord
  2
*Model_Space
340
22
  0
BLOCK_RECORD
  5
1B
330
1
100
AcDbSymbolTableRecord
100
AcDbBlockTableRecord
  2
*Paper_Space
340
1E
  0
BLOCK_RECORD
  5
23
330
1
100
AcDbSymbolTableRecord
100
AcDbBlockTableRecord
  2
*Paper_Space0
340
26
  0
BLOCK_RECORD
  5
8B
330
1
100
AcDbSymbolTableRecord
100
AcDbBlockTableRecord
  2
SW_CENTERMARKSYMBOL_0
340
0
102
{BLKREFS
331
96
102
}
  0
BLOCK_RECORD
  5
A9
330
1
100
AcDbSymbolTableRecord
100
AcDbBlockTableRecord
  2
SW_CENTERMARKSYMBOL_1
340
0
102
{BLKREFS
331
B4
102
}
  0
BLOCK_RECORD
  5
D9
330
1
100
AcDbSymbolTableRecord
100
AcDbBlockTableRecord
  2
SW_CENTERMARKSYMBOL_2
340
0
102
{BLKREFS
331
E4
102
}
  0
BLOCK_RECORD
  5
E5
330
1
100
AcDbSymbolTableRecord
100
AcDbBlockTableRecord
  2
SW_CENTERMARKSYMBOL_3
340
0
102
{BLKREFS
331
F0
102
}
  0
ENDTAB
  0
ENDSEC
  0
SECTION
  2
BLOCKS
  0
BLOCK
  5
20
330
1F
100
AcDbEntity
  8
0
100
AcDbBlockBegin
  2
*Model_Space
 70
     0
 10
0.0
 20
0.0
 30
0.0
  3
*Model_Space
  1

  0
ENDBLK
  5
21
330
1F
100
AcDbEntity
  8
0
100
AcDbBlockEnd
  0
BLOCK
  5
1C
330
1B
100
AcDbEntity
 67
     1
  8
0
100
AcDbBlockBegin
  2
*Paper_Space
 70
     0
 10
0.0
 20
0.0
 30
0.0
  3
*Paper_Space
  1

  0
ENDBLK
  5
1D
330
1B
100
AcDbEntity
 67
     1
  8
0
100
AcDbBlockEnd
  0
BLOCK
  5
24
330
23
100
AcDbEntity
  8
0
100
AcDbBlockBegin
  2
*Paper_Space0
 70
     0
 10
0.0
 20
0.0
 30
0.0
  3
*Paper_Space0
  1

  0
ENDBLK
  5
25
330
23
100
AcDbEntity
  8
0
100
AcDbBlockEnd
  0
BLOCK
  5
8C
330
8B
100
AcDbEntity
  8
0
100
AcDbBlockBegin
  2
SW_CENTERMARKSYMBOL_0
 70
     0
 10
0.0
 20
0.0
 30
0.0
  3
SW_CENTERMARKSYMBOL_0
  1

  0
LINE
  5
8E
330
8B
100
AcDbEntity
  8
FORMAT
 62
     0
100
AcDbLine
 10
0.0
 20
0.0
 30
0.0
 11
0.0
 21
2.5
 31
0.0
  0
LINE
  5
8F
330
8B
100
AcDbEntity
  8
FORMAT
 62
     0
100
AcDbLine
 10
0.0
 20
0.0
 30
0.0
 11
-2.5
 21
0.0
 31
0.0
  0
LINE
  5
90
330
8B
100
AcDbEntity
  8
FORMAT
 62
     0
100
AcDbLine
 10
0.0
 20
0.0
 30
0.0
 11
0.0
 21
-2.5
 31
0.0
  0
LINE
  5
91
330
8B
100
AcDbEntity
  8
FORMAT
 62
     0
100
AcDbLine
 10
0.0
 20
0.0
 30
0.0
 11
2.5
 21
0.0
 31
0.0
  0
LINE
  5
92
330
8B
100
AcDbEntity
  8
FORMAT
 62
     0
100
AcDbLine
 10
0.0
 20
5.0
 30
0.0
 11
0.0
 21
81.5
 31
0.0
  0
LINE
  5
93
330
8B
100
AcDbEntity
  8
FORMAT
 62
     0
100
AcDbLine
 10
-5.0
 20
0.0
 30
0.0
 11
-81.5
 21
0.0
 31
0.0
  0
LINE
  5
94
330
8B
100
AcDbEntity
  8
FORMAT
 62
     0
100
AcDbLine
 10
0.0
 20
-5.0
 30
0.0
 11
0.0
 21
-81.5
 31
0.0
  0
LINE
  5
95
330
8B
100
AcDbEntity
  8
FORMAT
 62
     0
100
AcDbLine
 10
5.0
 20
0.0
 30
0.0
 11
81.5
 21
0.0
 31
0.0
  0
ENDBLK
  5
8D
330
8B
100
AcDbEntity
  8
0
100
AcDbBlockEnd
  0
BLOCK
  5
AA
330
A9
100
AcDbEntity
  8
0
100
AcDbBlockBegin
  2
SW_CENTERMARKSYMBOL_1
 70
     0
 10
0.0
 20
0.0
 30
0.0
  3
SW_CENTERMARKSYMBOL_1
  1

  0
LINE
  5
AC
330
A9
100
AcDbEntity
  8
FORMAT
 62
     0
100
AcDbLine
 10
0.0
 20
0.0
 30
0.0
 11
0.0
 21
2.5
 31
0.0
  0
LINE
  5
AD
330
A9
100
AcDbEntity
  8
FORMAT
 62
     0
100
AcDbLine
 10
0.0
 20
0.0
 30
0.0
 11
-2.5
 21
0.0
 31
0.0
  0
LINE
  5
AE
330
A9
100
AcDbEntity
  8
FORMAT
 62
     0
100
AcDbLine
 10
0.0
 20
0.0
 30
0.0
 11
0.0
 21
-2.5
 31
0.0
  0
LINE
  5
AF
330
A9
100
AcDbEntity
  8
FORMAT
 62
     0
100
AcDbLine
 10
0.0
 20
0.0
 30
0.0
 11
2.5
 21
0.0
 31
0.0
  0
LINE
  5
B0
330
A9
100
AcDbEntity
  8
FORMAT
 62
     0
100
AcDbLine
 10
0.0
 20
5.0
 30
0.0
 11
0.0
 21
57.5
 31
0.0
  0
LINE
  5
B1
330
A9
100
AcDbEntity
  8
FORMAT
 62
     0
100
AcDbLine
 10
-5.0
 20
0.0
 30
0.0
 11
-57.5
 21
0.0
 31
0.0
  0
LINE
  5
B2
330
A9
100
AcDbEntity
  8
FORMAT
 62
     0
100
AcDbLine
 10
0.0
 20
-5.0
 30
0.0
 11
0.0
 21
-57.5
 31
0.0
  0
LINE
  5
B3
330
A9
100
AcDbEntity
  8
FORMAT
 62
     0
100
AcDbLine
 10
5.0
 20
0.0
 30
0.0
 11
57.5
 21
0.0
 31
0.0
  0
ENDBLK
  5
AB
330
A9
100
AcDbEntity
  8
0
100
AcDbBlockEnd
  0
BLOCK
  5
DA
330
D9
100
AcDbEntity
  8
0
100
AcDbBlockBegin
  2
SW_CENTERMARKSYMBOL_2
 70
     0
 10
0.0
 20
0.0
 30
0.0
  3
SW_CENTERMARKSYMBOL_2
  1

  0
LINE
  5
DC
330
D9
100
AcDbEntity
  8
FORMAT
 62
     0
100
AcDbLine
 10
0.0
 20
0.0
 30
0.0
 11
0.0
 21
2.5
 31
0.0
  0
LINE
  5
DD
330
D9
100
AcDbEntity
  8
FORMAT
 62
     0
100
AcDbLine
 10
0.0
 20
0.0
 30
0.0
 11
-2.5
 21
0.0
 31
0.0
  0
LINE
  5
DE
330
D9
100
AcDbEntity
  8
FORMAT
 62
     0
100
AcDbLine
 10
0.0
 20
0.0
 30
0.0
 11
0.0
 21
-2.5
 31
0.0
  0
LINE
  5
DF
330
D9
100
AcDbEntity
  8
FORMAT
 62
     0
100
AcDbLine
 10
0.0
 20
0.0
 30
0.0
 11
2.5
 21
0.0
 31
0.0
  0
LINE
  5
E0
330
D9
100
AcDbEntity
  8
FORMAT
 62
     0
100
AcDbLine
 10
0.0
 20
5.0
 30
0.0
 11
0.0
 21
9.5
 31
0.0
  0
LINE
  5
E1
330
D9
100
AcDbEntity
  8
FORMAT
 62
     0
100
AcDbLine
 10
-5.0
 20
0.0
 30
0.0
 11
-9.5
 21
0.0
 31
0.0
  0
LINE
  5
E2
330
D9
100
AcDbEntity
  8
FORMAT
 62
     0
100
AcDbLine
 10
0.0
 20
-5.0
 30
0.0
 11
0.0
 21
-9.5
 31
0.0
  0
LINE
  5
E3
330
D9
100
AcDbEntity
  8
FORMAT
 62
     0
100
AcDbLine
 10
5.0
 20
0.0
 30
0.0
 11
9.5
 21
0.0
 31
0.0
  0
ENDBLK
  5
DB
330
D9
100
AcDbEntity
  8
0
100
AcDbBlockEnd
  0
BLOCK
  5
E6
330
E5
100
AcDbEntity
  8
0
100
AcDbBlockBegin
  2
SW_CENTERMARKSYMBOL_3
 70
     0
 10
0.0
 20
0.0
 30
0.0
  3
SW_CENTERMARKSYMBOL_3
  1

  0
LINE
  5
E8
330
E5
100
AcDbEntity
  8
FORMAT
 62
     0
100
AcDbLine
 10
0.0
 20
0.0
 30
0.0
 11
0.0
 21
2.5
 31
0.0
  0
LINE
  5
E9
330
E5
100
AcDbEntity
  8
FORMAT
 62
     0
100
AcDbLine
 10
0.0
 20
0.0
 30
0.0
 11
-2.5
 21
0.0
 31
0.0
  0
LINE
  5
EA
330
E5
100
AcDbEntity
  8
FORMAT
 62
     0
100
AcDbLine
 10
0.0
 20
0.0
 30
0.0
 11
0.0
 21
-2.5
 31
0.0
  0
LINE
  5
EB
330
E5
100
AcDbEntity
  8
FORMAT
 62
     0
100
AcDbLine
 10
0.0
 20
0.0
 30
0.0
 11
2.5
 21
0.0
 31
0.0
  0
LINE
  5
EC
330
E5
100
AcDbEntity
  8
FORMAT
 62
     0
100
AcDbLine
 10
0.0
 20
5.0
 30
0.0
 11
0.0
 21
9.5
 31
0.0
  0
LINE
  5
ED
330
E5
100
AcDbEntity
  8
FORMAT
 62
     0
100
AcDbLine
 10
-5.0
 20
0.0
 30
0.0
 11
-9.5
 21
0.0
 31
0.0
  0
LINE
  5
EE
330
E5
100
AcDbEntity
  8
FORMAT
 62
     0
100
AcDbLine
 10
0.0
 20
-5.0
 30
0.0
 11
0.0
 21
-9.5
 31
0.0
  0
LINE
  5
EF
330
E5
100
AcDbEntity
  8
FORMAT
 62
     0
100
AcDbLine
 10
5.0
 20
0.0
 30
0.0
 11
9.5
 21
0.0
 31
0.0
  0
ENDBLK
  5
E7
330
E5
100
AcDbEntity
  8
0
100
AcDbBlockEnd
  0
ENDSEC
  0
SECTION
  2
ENTITIES
  0
LINE
  5
83
330
1F
100
AcDbEntity
  8
0
  6
Continuous
 62
     7
370
    25
100
AcDbLine
 10
95.0363413148
 20
182.3959855186
 30
0.0
 11
95.0363413148
 21
205.1989063638
 31
0.0
  0
LINE
  5
84
330
1F
100
AcDbEntity
  8
0
  6
Continuous
 62
     7
370
    25
100
AcDbLine
 10
81.0363413148
 20
205.1989063638
 30
0.0
 11
81.0363413148
 21
182.388623194
 31
0.0
  0
LINE
  5
85
330
1F
100
AcDbEntity
  8
0
  6
Continuous
 62
     7
370
    25
100
AcDbLine
 10
144.7824150295
 20
48.6989063638
 30
0.0
 11
264.0363413148
 21
48.6989063638
 31
0.0
  0
LINE
  5
86
330
1F
100
AcDbEntity
  8
0
  6
Continuous
 62
     7
370
    25
100
AcDbLine
 10
264.0363413148
 20
158.6989063638
 30
0.0
 11
144.7706197546
 21
158.6989063638
 31
0.0
  0
CIRCLE
  5
87
330
1F
100
AcDbEntity
  8
0
  6
Continuous
 62
     7
370
    25
100
AcDbCircle
 10
88.0363413148
 20
103.6989063638
 30
0.0
 40
62.5
  0
CIRCLE
  5
88
330
1F
100
AcDbEntity
  8
0
  6
Continuous
 62
     7
370
    25
100
AcDbCircle
 10
88.0363413148
 20
103.6989063638
 30
0.0
 40
79.00000000000003
  0
LINE
  5
89
330
1F
100
AcDbEntity
  8
0
  6
Continuous
 62
     7
370
    25
100
AcDbLine
 10
95.0363413148
 20
205.1989063638
 30
0.0
 11
81.0363413148
 21
205.1989063638
 31
0.0
  0
LINE
  5
8A
330
1F
100
AcDbEntity
  8
0
  6
Continuous
 62
     7
370
    25
100
AcDbLine
 10
264.0363413148
 20
158.6989063638
 30
0.0
 11
264.0363413148
 21
48.6989063638
 31
0.0
  0
INSERT
  5
96
330
1F
100
AcDbEntity
  8
FORMAT
 62
     7
100
AcDbBlockReference
  2
SW_CENTERMARKSYMBOL_0
 10
88.0363413148
 20
103.6989063638
 30
0.0
  0
LINE
  5
97
330
1F
100
AcDbEntity
  8
0
  6
Continuous
 62
     7
370
    25
100
AcDbLine
 10
-360.7841557468
 20
182.6989063638
 30
0.0
 11
-361.8709637307
 21
182.6989063638
 31
0.0
  0
LINE
  5
98
330
1F
100
AcDbEntity
  8
0
  6
Continuous
 62
     7
370
    25
100
AcDbLine
 10
-108.7841557468
 20
182.6989063638
 30
0.0
 11
-346.8709637307
 21
182.6989063638
 31
0.0
  0
LINE
  5
99
330
1F
100
AcDbEntity
  8
0
  6
Continuous
 62
     7
370
    25
100
AcDbLine
 10
-93.8709637307
 20
182.6989063638
 30
0.0
 11
-94.8709637307
 21
182.6989063638
 31
0.0
  0
LINE
  5
9A
330
1F
100
AcDbEntity
  8
0
  6
Continuous
 62
     7
370
    25
100
AcDbLine
 10
-361.8709637307
 20
24.6989063638
 30
0.0
 11
-93.8709637307
 21
24.6989063638
 31
0.0
  0
LINE
  5
9B
330
1F
100
AcDbEntity
  8
0
  6
Continuous
 62
     7
370
    25
100
AcDbLine
 10
-94.8709637307
 20
182.6989063638
 30
0.0
 11
-94.8709637307
 21
205.1989063638
 31
0.0
  0
LINE
  5
9C
330
1F
100
AcDbEntity
  8
0
  6
Continuous
 62
     7
370
    25
100
AcDbLine
 10
-108.8709637307
 20
205.1989063638
 30
0.0
 11
-108.8709637307
 21
182.6913147449
 31
0.0
  0
LINE
  5
9D
330
1F
100
AcDbEntity
  8
0
  6
Continuous
 62
     7
370
    25
100
AcDbLine
 10
-346.8709637307
 20
182.6989063638
 30
0.0
 11
-346.8709637307
 21
205.1989063638
 31
0.0
  0
LINE
  5
9E
330
1F
100
AcDbEntity
  8
0
  6
Continuous
 62
     7
370
    25
100
AcDbLine
 10
-360.8709637307
 20
205.1989063638
 30
0.0
 11
-360.8709637307
 21
182.6913147449
 31
0.0
  0
CIRCLE
  5
9F
330
1F
100
AcDbEntity
  8
0
  6
Continuous
 62
     7
370
    25
100
AcDbCircle
 10
-227.8709637307
 20
103.6989063638
 30
0.0
 40
44.99999999999997
  0
CIRCLE
  5
A0
330
1F
100
AcDbEntity
  8
0
  6
Continuous
 62
     7
370
    25
100
AcDbCircle
 10
-227.8709637307
 20
103.6989063638
 30
0.0
 40
54.99999999999997
  0
LINE
  5
A1
330
1F
100
AcDbEntity
  8
0
  6
Continuous
 62
     7
370
    25
100
AcDbLine
 10
-361.8709637307
 20
103.6989063638
 30
0.0
 11
-361.8709637307
 21
182.6989063638
 31
0.0
  0
LINE
  5
A2
330
1F
100
AcDbEntity
  8
0
  6
Continuous
 62
     7
370
    25
100
AcDbLine
 10
-361.8709637307
 20
24.6989063638
 30
0.0
 11
-361.8709637307
 21
103.6989063638
 31
0.0
  0
LINE
  5
A3
330
1F
100
AcDbEntity
  8
0
  6
Continuous
 62
     7
370
    25
100
AcDbLine
 10
-93.8709637307
 20
103.6989063638
 30
0.0
 11
-93.8709637307
 21
182.6989063638
 31
0.0
  0
LINE
  5
A4
330
1F
100
AcDbEntity
  8
0
  6
Continuous
 62
     7
370
    25
100
AcDbLine
 10
-93.8709637307
 20
24.6989063638
 30
0.0
 11
-93.8709637307
 21
103.6989063638
 31
0.0
  0
SPLINE
  5
A5
330
1F
100
AcDbEntity
  8
0
  6
Continuous
 62
     7
370
    25
100
AcDbSpline
210
0.0
220
0.0
230
1.0
 70
     8
 71
     3
 72
    17
 73
    13
 74
     0
 42
0.00000001
 43
0.00000001
 40
0.0
 40
0.0
 40
0.0
 40
0.0
 40
0.1070846455846277
 40
0.2141591967228406
 40
0.3214960969920784
 40
0.4290084177978434
 40
0.5362341824212892
 40
0.6431584138167081
 40
0.7502366264344968
 40
0.857683482391039
 40
0.9651397471044036
 40
1.0
 40
1.0
 40
1.0
 40
1.0
 10
-346.870963730668
 20
182.698906363772
 30
0.0
 10
-346.9480489420546
 20
182.6918828237605
 30
0.0
 10
-347.1022120983095
 20
182.6778364058189
 30
0.0
 10
-348.303586642702
 20
182.5801053752086
 30
0.0
 10
-350.0753093806947
 20
182.471074616667
 30
0.0
 10
-352.2920014333966
 20
182.3922781509036
 30
0.0
 10
-354.6819681295607
 20
182.380367933297
 30
0.0
 10
-356.9736215396726
 20
182.4393839029474
 30
0.0
 10
-358.9319046211799
 20
182.5450176762299
 30
0.0
 10
-360.2698111242748
 20
182.6456162707197
 30
0.0
 10
-360.9077592702378
 20
182.70212308143
 30
0.0
 10
-360.8084752446168
 20
182.6934201858539
 30
0.0
 10
-360.7841557467835
 20
182.6912884224731
 30
0.0
  0
SPLINE
  5
A6
330
1F
100
AcDbEntity
  8
0
  6
Continuous
 62
     7
370
    25
100
AcDbSpline
210
0.0
220
0.0
230
1.0
 70
     8
 71
     3
 72
    17
 73
    13
 74
     0
 42
0.00000001
 43
0.00000001
 40
0.0
 40
0.0
 40
0.0
 40
0.0
 40
0.1070846455846278
 40
0.2141591967228414
 40
0.3214960969920779
 40
0.4290084177978433
 40
0.5362341824212884
 40
0.6431584138167086
 40
0.750236626434495
 40
0.8576834823910398
 40
0.9651397471044034
 40
1.0
 40
1.0
 40
1.0
 40
1.0
 10
-94.870963730668
 20
182.698906363772
 30
0.0
 10
-94.94804894205456
 20
182.6918828237605
 30
0.0
 10
-95.10221209830947
 20
182.6778364058189
 30
0.0
 10
-96.30358664270206
 20
182.5801053752086
 30
0.0
 10
-98.07530938069469
 20
182.471074616667
 30
0.0
 10
-100.2920014333966
 20
182.3922781509037
 30
0.0
 10
-102.6819681295607
 20
182.380367933297
 30
0.0
 10
-104.9736215396726
 20
182.4393839029474
 30
0.0
 10
-106.93190462118
 20
182.5450176762299
 30
0.0
 10
-108.2698111242747
 20
182.6456162707197
 30
0.0
 10
-108.9077592702378
 20
182.7021230814301
 30
0.0
 10
-108.8084752446168
 20
182.6934201858538
 30
0.0
 10
-108.7841557467835
 20
182.6912884224731
 30
0.0
  0
LINE
  5
A7
330
1F
100
AcDbEntity
  8
0
  6
Continuous
 62
     7
370
    25
100
AcDbLine
 10
-94.8709637307
 20
205.1989063638
 30
0.0
 11
-108.8709637307
 21
205.1989063638
 31
0.0
  0
LINE
  5
A8
330
1F
100
AcDbEntity
  8
0
  6
Continuous
 62
     7
370
    25
100
AcDbLine
 10
-346.8709637307
 20
205.1989063638
 30
0.0
 11
-360.8709637307
 21
205.1989063638
 31
0.0
  0
INSERT
  5
B4
330
1F
100
AcDbEntity
  8
FORMAT
 62
     7
100
AcDbBlockReference
  2
SW_CENTERMARKSYMBOL_1
 10
-227.8709637307
 20
103.6989063638
 30
0.0
  0
LINE
  5
B5
330
1F
100
AcDbEntity
  8
0
  6
Continuous
 62
     7
370
    25
100
AcDbLine
 10
167.0363413148
 20
470.8171470586
 30
0.0
 11
167.0363413148
 21
549.8171470586
 31
0.0
  0
LINE
  5
B6
330
1F
100
AcDbEntity
  8
0
  6
Continuous
 62
     7
370
    25
100
AcDbLine
 10
167.0363413148
 20
281.8171470586
 30
0.0
 11
167.0363413148
 21
360.8249748838
 31
0.0
  0
LINE
  5
B7
330
1F
100
AcDbEntity
  8
0
  6
Continuous
 62
     7
370
    25
100
AcDbLine
 10
9.0363413148
 20
549.8171470586
 30
0.0
 11
9.0363413148
 21
281.8171470586
 31
0.0
  0
LINE
  5
B8
330
1F
100
AcDbEntity
  8
0
  6
Continuous
 62
     7
370
    25
100
AcDbLine
 10
167.0308938137
 20
360.8171470586
 30
0.0
 11
264.0363413148
 21
360.8171470586
 31
0.0
  0
LINE
  5
B9
330
1F
100
AcDbEntity
  8
0
  6
Continuous
 62
     7
370
    25
100
AcDbLine
 10
264.0363413148
 20
470.8171470586
 30
0.0
 11
167.0363413148
 21
470.8171470586
 31
0.0
  0
SPLINE
  5
BA
330
1F
100
AcDbEntity
  8
0
  6
Continuous
 62
     7
370
    25
100
AcDbSpline
210
0.0
220
0.0
230
1.0
 70
     8
 71
     3
 72
    47
 73
    43
 74
     0
 42
0.00000001
 43
0.00000001
 40
0.0
 40
0.0
 40
0.0
 40
0.0
 40
0.0224942637228309
 40
0.0449891414978737
 40
0.0682152231634563
 40
0.0914430928713677
 40
0.1139155247954304
 40
0.136389861997397
 40
0.1594182240599984
 40
0.1824484641835437
 40
0.2069586444615176
 40
0.2314704652909285
 40
0.2565002830153771
 40
0.2815306738080275
 40
0.3101777979073795
 40
0.3388227588815663
 40
0.3683549673084507
 40
0.3978790588523154
 40
0.4176767945122666
 40
0.4374719741354821
 40
0.4577924916238438
 40
0.4781106122828613
 40
0.4979381922764135
 40
0.5177656416092303
 40
0.5382548363164739
 40
0.5587463525352339
 40
0.5961251286381312
 40
0.6342574764526057
 40
0.66265075801353
 40
0.6910481947586206
 40
0.7202563515982761
 40
0.7494647630978607
 40
0.7781387251812025
 40
0.8068101879111459
 40
0.8363941759408127
 40
0.865973180861844
 40
0.8883078209373559
 40
0.9106406045544254
 40
0.9335957975901701
 40
0.9565493137561536
 40
0.9789061388336274
 40
1.0
 40
1.0
 40
1.0
 40
1.0
 10
167.0363413147963
 20
470.8171470585652
 30
0.0
 10
167.0162090153261
 20
470.7883068335192
 30
0.0
 10
166.9759438668108
 20
470.7306255961419
 30
0.0
 10
166.6533646470094
 20
470.2660964408707
 30
0.0
 10
166.1357772559459
 20
469.517089194575
 30
0.0
 10
165.4203182104827
 20
468.4718610517405
 30
0.0
 10
164.5379849035527
 20
467.1677092794748
 30
0.0
 10
163.5056374820066
 20
465.6180814724596
 30
0.0
 10
162.3269541412472
 20
463.8153954364794
 30
0.0
 10
160.993213322887
 20
461.7266853235885
 30
0.0
 10
159.5271889036987
 20
459.3636140497675
 30
0.0
 10
157.9388946764948
 20
456.7076956248831
 30
0.0
 10
156.2836130078175
 20
453.8146448100742
 30
0.0
 10
154.51071616221
 20
450.5403766017427
 30
0.0
 10
152.6638345921031
 20
446.8776215474475
 30
0.0
 10
150.7803235863045
 20
442.7565998876642
 30
0.0
 10
149.0043575441348
 20
438.3372122854763
 30
0.0
 10
147.5898911351816
 20
434.1389430748584
 30
0.0
 10
146.539106719761
 20
430.3091807465359
 30
0.0
 10
145.7842213046099
 20
426.8951900061589
 30
0.0
 10
145.2108512132547
 20
423.3699517947071
 30
0.0
 10
144.8464156548112
 20
419.7830106192194
 30
0.0
 10
144.7110213410862
 20
416.1927113363539
 30
0.0
 10
144.7991422059832
 20
412.589129992107
 30
0.0
 10
145.1206730679051
 20
408.9726318551467
 30
0.0
 10
145.8132287511059
 20
404.384759789604
 30
0.0
 10
147.1037253925344
 20
398.9376834282758
 30
0.0
 10
148.9592819563933
 20
393.3860574305957
 30
0.0
 10
150.8920718886402
 20
388.6225690166661
 30
0.0
 10
152.7626647544633
 20
384.5523924919591
 30
0.0
 10
154.7112812413159
 20
380.7034084447476
 30
0.0
 10
156.6737260156479
 20
377.1165423426295
 30
0.0
 10
158.579138248231
 20
373.8361354369133
 30
0.0
 10
160.4043240586256
 20
370.8420092061862
 30
0.0
 10
162.1093059339216
 20
368.1506962744585
 30
0.0
 10
163.5197363112262
 20
365.9935930499944
 30
0.0
 10
164.6310201365408
 20
364.3282519137028
 30
0.0
 10
165.4906016207571
 20
363.0593387623309
 30
0.0
 10
166.1833670876984
 20
362.0481201902364
 30
0.0
 10
166.6808346087709
 20
361.3285868543999
 30
0.0
 10
166.9834712481934
 20
360.8928754263403
 30
0.0
 10
167.0153936097975
 20
360.8471655207275
 30
0.0
 10
167.0308908532703
 20
360.8249748837945
 30
0.0
  0
LINE
  5
BB
330
1F
100
AcDbEntity
  8
0
  6
Continuous
 62
     7
370
    25
100
AcDbLine
 10
9.0363413148
 20
549.8171470586
 30
0.0
 11
167.0363413148
 21
549.8171470586
 31
0.0
  0
LINE
  5
BC
330
1F
100
AcDbEntity
  8
0
  6
Continuous
 62
     7
370
    25
100
AcDbLine
 10
9.0363413148
 20
281.8171470586
 30
0.0
 11
167.0363413148
 21
281.8171470586
 31
0.0
  0
LINE
  5
BD
330
1F
100
AcDbEntity
  8
0
  6
Continuous
 62
     7
370
    25
100
AcDbLine
 10
264.0363413148
 20
470.8171470586
 30
0.0
 11
264.0363413148
 21
360.8171470586
 31
0.0
  0
LINE
  5
BE
330
1F
100
AcDbEntity
  8
0
  6
Continuous
 62
     7
370
    25
100
AcDbLine
 10
362.4523931537
 20
24.6989063638
 30
0.0
 11
630.4523931537
 21
24.6989063638
 31
0.0
  0
LINE
  5
BF
330
1F
100
AcDbEntity
  8
0
  6
Continuous
 62
     7
370
    25
100
AcDbLine
 10
363.4523931537
 20
182.6989063638
 30
0.0
 11
362.4523931537
 21
182.6989063638
 31
0.0
  0
LINE
  5
C0
330
1F
100
AcDbEntity
  8
0
  6
Continuous
 62
     7
370
    25
100
AcDbLine
 10
615.4523931537
 20
182.6989063638
 30
0.0
 11
377.3655851698
 21
182.6989063638
 31
0.0
  0
LINE
  5
C1
330
1F
100
AcDbEntity
  8
0
  6
Continuous
 62
     7
370
    25
100
AcDbLine
 10
630.4523931537
 20
182.6989063638
 30
0.0
 11
629.3655851698
 21
182.6989063638
 31
0.0
  0
LINE
  5
C2
330
1F
100
AcDbEntity
  8
0
  6
Continuous
 62
     7
370
    25
100
AcDbLine
 10
377.4523931537
 20
182.6913147449
 30
0.0
 11
377.4523931537
 21
205.1989063638
 31
0.0
  0
LINE
  5
C3
330
1F
100
AcDbEntity
  8
0
  6
Continuous
 62
     7
370
    25
100
AcDbLine
 10
363.4523931537
 20
205.1989063638
 30
0.0
 11
363.4523931537
 21
182.6989063638
 31
0.0
  0
LINE
  5
C4
330
1F
100
AcDbEntity
  8
0
  6
Continuous
 62
     7
370
    25
100
AcDbLine
 10
629.4523931537
 20
182.6913147449
 30
0.0
 11
629.4523931537
 21
205.1989063638
 31
0.0
  0
LINE
  5
C5
330
1F
100
AcDbEntity
  8
0
  6
Continuous
 62
     7
370
    25
100
AcDbLine
 10
615.4523931537
 20
205.1989063638
 30
0.0
 11
615.4523931537
 21
182.6989063638
 31
0.0
  0
LINE
  5
C6
330
1F
100
AcDbEntity
  8
0
  6
Continuous
 62
     7
370
    25
100
AcDbLine
 10
630.4523931537
 20
182.6989063638
 30
0.0
 11
630.4523931537
 21
24.6989063638
 31
0.0
  0
LINE
  5
C7
330
1F
100
AcDbEntity
  8
0
  6
Continuous
 62
     7
370
    25
100
AcDbLine
 10
362.4523931537
 20
182.6989063638
 30
0.0
 11
362.4523931537
 21
24.6989063638
 31
0.0
  0
ARC
  5
C8
330
1F
100
AcDbEntity
  8
0
  6
Continuous
 62
     7
370
    25
100
AcDbCircle
 10
622.4521545178
 20
261.5310798022
 30
0.0
 40
79.14232892815984
100
AcDbArc
 50
264.9258314719
 51
275.0114257957
  0
ARC
  5
C9
330
1F
100
AcDbEntity
  8
0
  6
Continuous
 62
     7
370
    25
100
AcDbCircle
 10
370.4521545178
 20
261.5310798022
 30
0.0
 40
79.14232892815774
100
AcDbArc
 50
264.9258314719
 51
275.0114257957
  0
LINE
  5
CA
330
1F
100
AcDbEntity
  8
0
  6
Continuous
 62
     7
370
    25
100
AcDbLine
 10
377.4523931537
 20
205.1989063638
 30
0.0
 11
363.4523931537
 21
205.1989063638
 31
0.0
  0
LINE
  5
CB
330
1F
100
AcDbEntity
  8
0
  6
Continuous
 62
     7
370
    25
100
AcDbLine
 10
629.4523931537
 20
205.1989063638
 30
0.0
 11
615.4523931537
 21
205.1989063638
 31
0.0
  0
LINE
  5
CC
330
1F
100
AcDbEntity
  8
0
  6
Continuous
 62
     7
370
    25
100
AcDbLine
 10
9.0363413148
 20
-58.8255335138
 30
0.0
 11
9.0363413148
 21
-326.8255335138
 31
0.0
  0
LINE
  5
CD
330
1F
100
AcDbEntity
  8
0
  6
Continuous
 62
     7
370
    25
100
AcDbLine
 10
167.0363413148
 20
-137.833361339
 30
0.0
 11
167.0363413148
 21
-58.8255335138
 31
0.0
  0
LINE
  5
CE
330
1F
100
AcDbEntity
  8
0
  6
Continuous
 62
     7
370
    25
100
AcDbLine
 10
167.0363413148
 20
-326.8255335138
 30
0.0
 11
167.0363413148
 21
-247.8255335138
 31
0.0
  0
LINE
  5
CF
330
1F
100
AcDbEntity
  8
0
  6
Continuous
 62
     7
370
    25
100
AcDbLine
 10
167.0363413148
 20
-247.8255335138
 30
0.0
 11
264.0363413148
 21
-247.8255335138
 31
0.0
  0
LINE
  5
D0
330
1F
100
AcDbEntity
  8
0
  6
Continuous
 62
     7
370
    25
100
AcDbLine
 10
264.0363413148
 20
-137.8255335138
 30
0.0
 11
167.0308938137
 21
-137.8255335138
 31
0.0
  0
CIRCLE
  5
D1
330
1F
100
AcDbEntity
  8
0
  6
Continuous
 62
     7
370
    25
100
AcDbCircle
 10
88.0363413148
 20
-66.8255335138
 30
0.0
 40
7.000000000000014
  0
CIRCLE
  5
D2
330
1F
100
AcDbEntity
  8
0
  6
Continuous
 62
     7
370
    25
100
AcDbCircle
 10
88.0363413148
 20
-66.8255335138
 30
0.0
 40
5.0
  0
CIRCLE
  5
D3
330
1F
100
AcDbEntity
  8
0
  6
Continuous
 62
     7
370
    25
100
AcDbCircle
 10
88.0363413148
 20
-318.8255335138
 30
0.0
 40
5.0
  0
CIRCLE
  5
D4
330
1F
100
AcDbEntity
  8
0
  6
Continuous
 62
     7
370
    25
100
AcDbCircle
 10
88.0363413148
 20
-318.8255335138
 30
0.0
 40
7.0
  0
SPLINE
  5
D5
330
1F
100
AcDbEntity
  8
0
  6
Continuous
 62
     7
370
    25
100
AcDbSpline
210
0.0
220
0.0
230
1.0
 70
     8
 71
     3
 72
    50
 73
    46
 74
     0
 42
0.00000001
 43
0.00000001
 40
0.0
 40
0.0
 40
0.0
 40
0.0
 40
0.0012623405984224
 40
0.0243592420606261
 40
0.0474568796211333
 40
0.068483347219749
 40
0.0895110213971941
 40
0.1110713192258758
 40
0.1326332300426667
 40
0.1552414414538983
 40
0.1778514336651272
 40
0.2009417713553613
 40
0.2240334925175476
 40
0.2504920999337667
 40
0.2769516286283384
 40
0.304026279401178
 40
0.3310995463272446
 40
0.3547413386127759
 40
0.3783804018181112
 40
0.4026247388419815
 40
0.4268637915991518
 40
0.4458452007107804
 40
0.464824530346551
 40
0.4843392683029309
 40
0.5038531094109454
 40
0.5228466187489801
 40
0.5418412665605497
 40
0.5613766269107388
 40
0.5809144134274218
 40
0.6054648034793986
 40
0.6300204099394708
 40
0.6552664942391249
 40
0.6805155698293454
 40
0.7057468364322216
 40
0.7309787621641926
 40
0.7567410169116967
 40
0.7825022285786359
 40
0.8118475235518533
 40
0.8411887532657051
 40
0.8716432553884854
 40
0.9020914271650101
 40
0.9261337689886526
 40
0.9501739590786477
 40
0.9750874873846457
 40
0.9999999999999999
 40
0.9999999999999999
 40
0.9999999999999999
 40
0.9999999999999999
 10
167.0308908532703
 20
-137.8333613390061
 30
0.0
 10
167.0326908705233
 20
-137.8307763460262
 30
0.0
 10
167.0674255974532
 20
-137.780894032328
 30
0.0
 10
166.9357079943413
 20
-137.969788572409
 30
0.0
 10
166.6286109008636
 20
-138.4123426706383
 30
0.0
 10
166.1210845433677
 20
-139.1472165455121
 30
0.0
 10
165.4691490912795
 20
-140.0994749861887
 30
0.0
 10
164.6549525605203
 20
-141.3013244910336
 30
0.0
 10
163.6775954878678
 20
-142.7649486782828
 30
0.0
 10
162.5508757431539
 20
-144.4820572992475
 30
0.0
 10
161.2804790573884
 20
-146.4620858113744
 30
0.0
 10
159.9010452867312
 20
-148.6704452632346
 30
0.0
 10
158.3627815318906
 20
-151.2157480311144
 30
0.0
 10
156.6871955181398
 20
-154.105962781912
 30
0.0
 10
154.887600301067
 20
-157.3875520609631
 30
0.0
 10
153.074612549188
 20
-160.9281629767315
 30
0.0
 10
151.3692247680436
 20
-164.5652418375493
 30
0.0
 10
149.8199758338566
 20
-168.2325032339319
 30
0.0
 10
148.4394968609849
 20
-171.9266386137714
 30
0.0
 10
147.2016693307008
 20
-175.8146817216768
 30
0.0
 10
146.2317316915253
 20
-179.5933019381965
 30
0.0
 10
145.5307468469388
 20
-183.1766520874873
 30
0.0
 10
145.0578329505111
 20
-186.5530190818841
 30
0.0
 10
144.7811162487206
 20
-190.0077339228928
 30
0.0
 10
144.7142320541038
 20
-193.4851069063458
 30
0.0
 10
144.8613067157273
 20
-196.925860497955
 30
0.0
 10
145.2079302150793
 20
-200.3376183367695
 30
0.0
 10
145.7530693117822
 20
-203.7269763815039
 30
0.0
 10
146.5410732989403
 20
-207.3590042287661
 30
0.0
 10
147.5957033460528
 20
-211.1584511895362
 30
0.0
 10
148.9317263671527
 20
-215.1102793152866
 30
0.0
 10
150.4304806123903
 20
-218.9197058289867
 30
0.0
 10
152.0488860867043
 20
-222.5726615203737
 30
0.0
 10
153.7298221769867
 20
-226.0287167417754
 30
0.0
 10
155.4482328097482
 20
-229.3047444042389
 30
0.0
 10
157.168291166461
 20
-232.3888620473669
 30
0.0
 10
158.9349524707623
 20
-235.3985230849168
 30
0.0
 10
160.6888476886346
 20
-238.2570469060588
 30
0.0
 10
162.3927456167511
 20
-240.9302719543883
 30
0.0
 10
163.9140762987566
 20
-243.246878123755
 30
0.0
 10
165.1090238449273
 20
-245.023005599223
 30
0.0
 10
165.9794982209476
 20
-246.2983039250263
 30
0.0
 10
166.5757017655561
 20
-247.1624980655707
 30
0.0
 10
166.962088177767
 20
-247.719222733953
 30
0.0
 10
167.0115906054845
 20
-247.7900970687537
 30
0.0
 10
167.0363413147963
 20
-247.8255335137768
 30
0.0
  0
LINE
  5
D6
330
1F
100
AcDbEntity
  8
0
  6
Continuous
 62
     7
370
    25
100
AcDbLine
 10
167.0363413148
 20
-326.8255335138
 30
0.0
 11
9.0363413148
 21
-326.8255335138
 31
0.0
  0
LINE
  5
D7
330
1F
100
AcDbEntity
  8
0
  6
Continuous
 62
     7
370
    25
100
AcDbLine
 10
167.0363413148
 20
-58.8255335138
 30
0.0
 11
9.0363413148
 21
-58.8255335138
 31
0.0
  0
LINE
  5
D8
330
1F
100
AcDbEntity
  8
0
  6
Continuous
 62
     7
370
    25
100
AcDbLine
 10
264.0363413148
 20
-137.8255335138
 30
0.0
 11
264.0363413148
 21
-247.8255335138
 31
0.0
  0
INSERT
  5
E4
330
1F
100
AcDbEntity
  8
FORMAT
 62
     7
100
AcDbBlockReference
  2
SW_CENTERMARKSYMBOL_2
 10
88.0363413148
 20
-318.8255335138
 30
0.0
  0
INSERT
  5
F0
330
1F
100
AcDbEntity
  8
FORMAT
 62
     7
100
AcDbBlockReference
  2
SW_CENTERMARKSYMBOL_3
 10
88.0363413148
 20
-66.8255335138
 30
0.0
  0
LINE
  5
F1
330
1F
100
AcDbEntity
  8
0
  6
Continuous
 62
     7
370
    25
100
AcDbLine
 10
644.5317188163
 20
-176.0111265443
 30
0.0
 11
644.29351091
 21
-175.8736120471
 31
0.0
  0
LINE
  5
F2
330
1F
100
AcDbEntity
  8
0
  6
Continuous
 62
     7
370
    25
100
AcDbLine
 10
534.2845707734
 20
-112.3668026867
 30
0.0
 11
455.0271014583
 21
-66.6124395601
 31
0.0
  0
LINE
  5
F3
330
1F
100
AcDbEntity
  8
0
  6
Continuous
 62
     7
370
    25
100
AcDbLine
 10
376.0335215801
 20
-203.4481598162
 30
0.0
 11
565.5381389381
 21
-312.8468468005
 31
0.0
  0
LINE
  5
F4
330
1F
100
AcDbEntity
  8
0
  6
Continuous
 62
     7
370
    25
100
AcDbLine
 10
586.4003458387
 20
-209.2946248565
 30
0.0
 11
662.2311788345
 21
-165.5184167708
 31
0.0
  0
LINE
  5
F5
330
1F
100
AcDbEntity
  8
0
  6
Continuous
 62
     7
370
    25
100
AcDbLine
 10
607.2356485395
 20
-70.253041909
 30
0.0
 11
531.4033575964
 21
-114.0300916497
 31
0.0
  0
LINE
  5
F6
330
1F
100
AcDbEntity
  8
0
  6
Continuous
 62
     7
370
    25
100
AcDbLine
 10
428.1871657687
 20
-64.8945222395
 30
0.0
 11
428.1871657687
 21
-55.4170397291
 31
0.0
  0
LINE
  5
F7
330
1F
100
AcDbEntity
  8
0
  6
Continuous
 62
     7
370
    25
100
AcDbLine
 10
414.1871657687
 20
-55.4170397291
 30
0.0
 11
414.1871657687
 21
-71.3176062722
 31
0.0
  0
SPLINE
  5
F8
330
1F
100
AcDbEntity
  8
0
  6
Continuous
 62
     7
370
    25
100
AcDbSpline
210
0.0
220
0.0
230
1.0
 70
     8
 71
     3
 72
    31
 73
    27
 74
     0
 42
0.00000001
 43
0.00000001
 40
0.0
 40
0.0
 40
0.0
 40
0.0
 40
0.0405129120623127
 40
0.0811772773659399
 40
0.1217078352377579
 40
0.1620374561420177
 40
0.2024887119293177
 40
0.2428463979956548
 40
0.2867693844325367
 40
0.3308028196586367
 40
0.3747425666894368
 40
0.4263381688638374
 40
0.4780847542808132
 40
0.5296094539456165
 40
0.5651898468108582
 40
0.6008585379307073
 40
0.6364011652938771
 40
0.6721232087406506
 40
0.7079818520354774
 40
0.7437200667723097
 40
0.793966935566321
 40
0.8442547216170023
 40
0.8953028695605338
 40
0.9465285576941336
 40
0.9976081487621925
 40
1.0
 40
1.0
 40
1.0
 40
1.0
 10
527.253182946672
 20
-135.0302996881658
 30
0.0
 10
527.2645737532719
 20
-136.5564651839573
 30
0.0
 10
527.2873979497987
 20
-139.6145015839978
 30
0.0
 10
527.4700693736498
 20
-144.6034070990557
 30
0.0
 10
527.761924466941
 20
-149.7822019128288
 30
0.0
 10
528.1769356919419
 20
-155.1135772634844
 30
0.0
 10
528.7153372313442
 20
-160.51111456531
 30
0.0
 10
529.4065721563347
 20
-166.0859841499871
 30
0.0
 10
530.2755641852908
 20
-171.7797569020782
 30
0.0
 10
531.3608233308329
 20
-177.5289400221651
 30
0.0
 10
532.743369497822
 20
-183.4482936680942
 30
0.0
 10
534.5111200752275
 20
-189.445210041746
 30
0.0
 10
536.807967961356
 20
-195.3779085012079
 30
0.0
 10
539.3440131585548
 20
-200.2675075568048
 30
0.0
 10
542.0163275638533
 20
-204.1579503912974
 30
0.0
 10
544.6652267121459
 20
-207.1849207762029
 30
0.0
 10
547.6473556289652
 20
-209.8023141430146
 30
0.0
 10
550.9769207785105
 20
-211.9237542600441
 30
0.0
 10
554.5845300946662
 20
-213.5392649179632
 30
0.0
 10
558.9217169751821
 20
-214.7808299632138
 30
0.0
 10
564.0052098676742
 20
-215.3594486053879
 30
0.0
 10
569.7396904059559
 20
-215.0796818093074
 30
0.0
 10
575.4581692447201
 20
-213.9745857070287
 30
0.0
 10
580.9597424245935
 20
-212.0431126109007
 30
0.0
 10
584.6439100710218
 20
-210.4414694842436
 30
0.0
 10
586.3165245950842
 20
-209.329823551221
 30
0.0
 10
586.3913429457258
 20
-209.2800980980399
 30
0.0
  0
SPLINE
  5
F9
330
1F
100
AcDbEntity
  8
0
  6
Continuous
 62
     7
370
    25
100
AcDbSpline
210
0.0
220
0.0
230
1.0
 70
     8
 71
     3
 72
    14
 73
    10
 74
     0
 42
0.00000001
 43
0.00000001
 40
0.0
 40
0.0
 40
0.0
 40
0.0
 40
0.1255512849583721
 40
0.2857067958231403
 40
0.4464360745207069
 40
0.6063609832302045
 40
0.7374355463153862
 40
0.8689990197306598
 40
1.0
 40
1.0
 40
1.0
 40
1.0
 10
531.4150108579263
 20
-114.0491631072048
 30
0.0
 10
531.0540570761989
 20
-114.3020419654089
 30
0.0
 10
530.2326640617684
 20
-114.8774977111055
 30
0.0
 10
529.2579945183663
 20
-116.6226893225486
 30
0.0
 10
528.4282833968215
 20
-119.260730777321
 30
0.0
 10
527.8623665731972
 20
-122.5458672718206
 30
0.0
 10
527.5018872550606
 20
-126.3346368337637
 30
0.0
 10
527.2924864057665
 20
-130.3740683910641
 30
0.0
 10
527.2662653752217
 20
-133.4804408549013
 30
0.0
 10
527.253182946672
 20
-135.0302996881658
 30
0.0
  0
LWPOLYLINE
  5
FA
330
1F
100
AcDbEntity
  8
0
  6
Continuous
 62
     7
370
    25
100
AcDbPolyline
 90
      106
 70
   128
 43
0.0
 10
471.3917472329
 20
-102.7821792712
 10
471.291762512
 20
-98.9821291611
 10
470.9921662686
 20
-95.3111221456
 10
470.4940309795
 20
-91.7822994773
 10
469.7991398398
 20
-88.4082934253
 10
468.9099803794
 20
-85.2011820557
 10
467.8297355584
 20
-82.1724459948
 10
466.5622723729
 20
-79.3329273316
 10
465.1121280121
 20
-76.692790806
 10
463.4844936165
 20
-74.2614874216
 10
461.6851956948
 20
-72.0477206134
 10
459.7206752667
 20
-70.0594150921
 10
457.5979648052
 20
-68.3036884753
 10
455.324663063
 20
-66.7868258088
 10
452.9089078704
 20
-65.5142570672
 10
450.3593470039
 20
-64.4905377163
 10
447.6851072297
 20
-63.7193324057
 10
444.8957616322
 20
-63.2034018502
 10
442.0012953447
 20
-62.9445929474
 10
439.0120698052
 20
-62.9438321659
 10
435.9387856654
 20
-63.2011222291
 10
432.7924444849
 20
-63.7155421054
 10
429.5843093485
 20
-64.4852503052
 10
426.3258645474
 20
-65.5074914728
 10
423.0287744683
 20
-66.7786062502
 10
419.704841838
 20
-68.2940443763
 10
416.3659654725
 20
-70.0483809761
 10
413.0240976828
 20
-72.0353359797
 10
409.6912014881
 20
-74.2477966039
 10
406.3792077919
 20
-76.677842814
 10
403.099972672
 20
-79.3167756752
 10
399.8652349391
 20
-82.1551484927
 10
396.6865741147
 20
-85.1828006285
 10
393.5753689796
 20
-88.3888938737
 10
390.5427568407
 20
-91.7619512467
 10
387.5995936623
 20
-95.2898980774
 10
384.7564152049
 20
-98.9601052318
 10
382.0233993094
 20
-102.7594343209
 10
379.4103294634
 20
-106.6742847326
 10
376.9265597787
 20
-110.6906423184
 10
374.5809815061
 20
-114.7941295606
 10
372.3819912073
 20
-118.9700570399
 10
370.3374606966
 20
-123.2034760196
 10
368.4547088627
 20
-127.4792319586
 10
366.7404754686
 20
-131.7820187602
 10
365.2008970248
 20
-136.0964335646
 10
363.8414848226
 20
-140.4070318864
 10
362.667105205
 20
-144.6983829024
 10
361.681962146
 20
-148.9551246896
 10
360.8895822023
 20
-153.1620192174
 10
360.2928018883
 20
-157.304006895
 10
359.8937575226
 20
-161.3662604817
 10
359.6938775807
 20
-165.3342381639
 10
359.6938775807
 20
-169.1937356112
 10
359.8937575226
 20
-172.9309368246
 10
360.2928018883
 20
-176.5324635936
 10
360.8895822023
 20
-179.9854233871
 10
361.681962146
 20
-183.2774555052
 10
362.667105205
 20
-186.3967753273
 10
363.8414848226
 20
-189.332216498
 10
365.2008970248
 20
-192.0732708999
 10
366.7404754686
 20
-194.6101262695
 10
368.4547088627
 20
-196.933701323
 10
370.3374606966
 20
-199.0356782648
 10
372.3819912073
 20
-200.9085325629
 10
374.5809815061
 20
-202.5455598851
 10
376.9265597787
 20
-203.9409000984
 10
379.4103294634
 20
-205.0895582469
 10
382.0233993094
 20
-205.9874224327
 10
384.7564152049
 20
-206.631278535
 10
387.5995936623
 20
-207.0188217159
 10
390.5427568407
 20
-207.1486646716
 10
393.5753689796
 20
-207.0203425979
 10
396.6865741147
 20
-206.6343148546
 10
399.8652349391
 20
-205.9919633208
 10
403.099972672
 20
-205.0955874482
 10
406.3792077919
 20
-203.9483960299
 10
409.6912014881
 20
-202.5544957133
 10
413.0240976828
 20
-200.9188762999
 10
416.3659654725
 20
-199.0473928827
 10
419.704841838
 20
-196.9467448865
 10
423.0287744683
 20
-194.6244520861
 10
426.3258645474
 20
-192.0888276868
 10
429.5843093485
 20
-189.348948566
 10
432.7924444849
 20
-186.4146227799
 10
435.9387856654
 20
-183.2963544531
 10
439.0120698052
 20
-180.0053061771
 10
442.0012953447
 20
-176.5532590504
 10
444.8957616322
 20
-172.9525705059
 10
447.6851072297
 20
-169.216130074
 10
450.3593470039
 20
-165.3573132418
 10
452.9089078704
 20
-161.389933572
 10
455.324663063
 20
-157.3281932541
 10
457.5979648052
 20
-153.1866322644
 10
459.7206752667
 20
-148.9800763163
 10
461.6851956948
 20
-144.7235837883
 10
463.4844936165
 20
-140.432391819
 10
465.1121280121
 20
-136.1218617619
 10
466.5622723729
 20
-131.8074241958
 10
467.8297355584
 20
-127.5045236876
 10
468.9099803794
 20
-123.2285635042
 10
469.7991398398
 20
-118.9948504734
 10
470.4940309795
 20
-114.8185401891
 10
470.9921662686
 20
-110.7145827581
 10
471.291762512
 20
-106.6976692828
 10
471.3917472329
 20
-102.7821792712
  0
LWPOLYLINE
  5
FB
330
1F
100
AcDbEntity
  8
0
  6
Continuous
 62
     7
370
    25
100
AcDbPolyline
 90
       15
 70
   128
 43
0.0
 10
660.8963645909
 20
-212.1808662554
 10
660.79637987
 20
-208.3808161453
 10
660.4967836266
 20
-204.7098091299
 10
659.9986483375
 20
-201.1809864615
 10
659.3037571978
 20
-197.8069804096
 10
658.4145977374
 20
-194.59986904
 10
657.3343529164
 20
-191.571132979
 10
656.0668897309
 20
-188.7316143158
 10
654.6167453701
 20
-186.0914777903
 10
652.9891109745
 20
-183.6601744058
 10
651.1898130528
 20
-181.4464075976
 10
649.2252926246
 20
-179.4581020763
 10
647.1025821632
 20
-177.7023754596
 10
644.829280421
 20
-176.1855127931
 10
644.5317188163
 20
-176.0111265443
  0
LWPOLYLINE
  5
FC
330
1F
100
AcDbEntity
  8
0
  6
Continuous
 62
     7
370
    25
100
AcDbPolyline
 90
       41
 70
   128
 43
0.0
 10
565.5381389381
 20
-312.8468468005
 10
566.4311771366
 20
-313.3395870826
 10
568.9149468213
 20
-314.4882452312
 10
571.5280166674
 20
-315.386109417
 10
574.2610325629
 20
-316.0299655192
 10
577.1042110203
 20
-316.4175087002
 10
580.0473741986
 20
-316.5473516559
 10
583.0799863376
 20
-316.4190295822
 10
586.1911914727
 20
-316.0330018389
 10
589.3698522971
 20
-315.390650305
 10
592.60459003
 20
-314.4942744324
 10
595.8838251499
 20
-313.3470830141
 10
599.1958188461
 20
-311.9531826976
 10
602.5287150408
 20
-310.3175632842
 10
605.8705828305
 20
-308.4460798669
 10
609.209459196
 20
-306.3454318708
 10
612.5333918263
 20
-304.0231390703
 10
615.8304819054
 20
-301.487514671
 10
619.0889267065
 20
-298.7476355503
 10
622.2970618429
 20
-295.8133097641
 10
625.4434030234
 20
-292.6950414374
 10
628.5166871632
 20
-289.4039931613
 10
631.5059127027
 20
-285.9519460346
 10
634.4003789902
 20
-282.3512574901
 10
637.1897245877
 20
-278.6148170582
 10
639.8639643619
 20
-274.756000226
 10
642.4135252284
 20
-270.7886205562
 10
644.829280421
 20
-266.7268802384
 10
647.1025821632
 20
-262.5853192487
 10
649.2252926246
 20
-258.3787633005
 10
651.1898130528
 20
-254.1222707725
 10
652.9891109745
 20
-249.8310788032
 10
654.6167453701
 20
-245.5205487461
 10
656.0668897309
 20
-241.2061111801
 10
657.3343529164
 20
-236.9032106718
 10
658.4145977374
 20
-232.6272504885
 10
659.3037571978
 20
-228.3935374577
 10
659.9986483375
 20
-224.2172271733
 10
660.4967836266
 20
-220.1132697423
 10
660.79637987
 20
-216.0963562671
 10
660.8963645909
 20
-212.1808662554
  0
LWPOLYLINE
  5
FD
330
1F
100
AcDbEntity
  8
0
  6
Continuous
 62
     7
370
    25
100
AcDbPolyline
 90
       94
 70
   128
 43
0.0
 10
459.7244853434
 20
-109.5175461937
 10
459.623661404
 20
-106.1304716456
 10
459.3216496223
 20
-102.8752603844
 10
458.8198280089
 20
-99.7667651925
 10
458.1204862606
 20
-96.8191694204
 10
457.2268153135
 20
-94.0459222717
 10
456.142892783
 20
-91.4596774369
 10
454.8736643592
 20
-89.072235358
 10
453.4249212401
 20
-86.8944893858
 10
451.8032737084
 20
-84.9363760755
 10
450.0161209698
 20
-83.2068298491
 10
448.0716173924
 20
-81.7137422294
 10
445.9786352999
 20
-80.4639258326
 10
443.7467244897
 20
-79.4630832844
 10
441.3860686588
 20
-78.7157811998
 10
438.9074389383
 20
-78.2254293467
 10
436.3221447472
 20
-77.9942650882
 10
433.6419821899
 20
-78.0233431738
 10
430.8791802335
 20
-78.3125309268
 10
428.0463449095
 20
-78.8605088499
 10
425.1564017958
 20
-79.6647766455
 10
422.22253704
 20
-80.7216646241
 10
419.2581371942
 20
-82.0263504482
 10
416.2767281347
 20
-83.5728811358
 10
413.2919133475
 20
-85.3542002219
 10
410.3173118577
 20
-87.3621799561
 10
407.3664960897
 20
-89.5876583876
 10
404.4529299391
 20
-92.0204811685
 10
401.5899073399
 20
-94.6495478866
 10
398.7904916076
 20
-97.4628627135
 10
396.0674558341
 20
-100.4475891388
 10
393.4332246071
 20
-103.5901085404
 10
390.8998173195
 20
-106.8760823231
 10
388.4787933277
 20
-110.2905173422
 10
386.1811992088
 20
-113.8178343138
 10
384.0175183579
 20
-117.4419388997
 10
381.9976231544
 20
-121.1462951417
 10
380.1307299169
 20
-124.9140009121
 10
378.4253568509
 20
-128.7278650335
 10
376.8892851827
 20
-132.5704857186
 10
375.529523655
 20
-136.4243299708
 10
374.3522765477
 20
-140.2718135825
 10
373.3629153694
 20
-144.0953813685
 10
372.5659543482
 20
-147.877587266
 10
371.9650298344
 20
-151.6011739369
 10
371.5628837089
 20
-155.2491515093
 10
371.3613508721
 20
-158.8048750982
 10
371.3613508721
 20
-162.2521207525
 10
371.5628837089
 20
-165.5751594809
 10
371.9650298344
 20
-168.7588290198
 10
372.5659543482
 20
-171.7886030153
 10
373.3629153694
 20
-174.6506573037
 10
374.3522765477
 20
-177.3319329876
 10
375.529523655
 20
-179.820196021
 10
376.8892851827
 20
-182.1040930305
 10
378.4253568509
 20
-184.1732031178
 10
380.1307299169
 20
-186.0180854082
 10
381.9976231544
 20
-187.630322127
 10
384.0175183579
 20
-189.0025570077
 10
386.1811992088
 20
-190.1285288573
 10
388.4787933277
 20
-191.0031001246
 10
390.8998173195
 20
-191.6222803414
 10
393.4332246071
 20
-191.9832443304
 10
396.0674558341
 20
-192.0843450957
 10
398.7904916076
 20
-191.9251213378
 10
401.5899073399
 20
-191.5062995581
 10
404.4529299391
 20
-190.8297907444
 10
407.3664960897
 20
-189.8986816511
 10
410.3173118577
 20
-188.7172207156
 10
413.2919133475
 20
-187.290798673
 10
416.2767281347
 20
-185.6259239601
 10
419.2581371942
 20
-183.7301930182
 10
422.22253704
 20
-181.6122556329
 10
425.1564017958
 20
-179.2817754666
 10
428.0463449095
 20
-176.7493859659
 10
430.8791802335
 20
-174.0266418432
 10
433.6419821899
 20
-171.1259663554
 10
436.3221447472
 20
-168.0605946196
 10
438.9074389383
 20
-164.8445132238
 10
441.3860686588
 20
-161.4923964099
 10
443.7467244897
 20
-158.0195391179
 10
445.9786352999
 20
-154.4417871993
 10
448.0716173924
 20
-150.7754651153
 10
450.0161209698
 20
-147.0373014529
 10
451.8032737084
 20
-143.2443525953
 10
453.4249212401
 20
-139.4139248982
 10
454.8736643592
 20
-135.5634957248
 10
456.142892783
 20
-131.7106337001
 10
457.2268153135
 20
-127.87291855
 10
458.1204862606
 20
-124.0678608883
 10
458.8198280089
 20
-120.3128223206
 10
459.3216496223
 20
-116.6249362265
 10
459.623661404
 20
-113.0210295844
 10
459.7244853434
 20
-109.5175461937
  0
LWPOLYLINE
  5
FE
330
1F
100
AcDbEntity
  8
0
  6
Continuous
 62
     7
370
    25
100
AcDbPolyline
 90
       88
 70
   128
 43
0.0
 10
673.6242866523
 20
-140.336952415
 10
673.5229071504
 20
-137.0378408865
 10
673.2192971905
 20
-133.6388791166
 10
672.7150396544
 20
-130.1577877179
 10
672.0127635074
 20
-126.6127154893
 10
671.116130092
 20
-123.0221447958
 10
670.0298140398
 20
-119.4047952105
 10
668.7594788997
 20
-115.7795259191
 10
667.3117476109
 20
-112.1652373971
 10
665.6941679739
 20
-108.5807728712
 10
663.9151733
 20
-105.0448200799
 10
661.9840384437
 20
-101.5758138437
 10
659.9108314479
 20
-98.1918399548
 10
657.706361054
 20
-94.9105408861
 10
655.3821203498
 20
-91.7490238117
 10
652.9502268501
 20
-88.7237714178
 10
650.4233593217
 20
-85.8505559693
 10
647.8146916817
 20
-83.1443570814
 10
645.1378243154
 20
-80.619283622
 10
642.4067131696
 20
-78.2885001548
 10
639.6355969934
 20
-76.1641583057
 10
636.8389231033
 20
-74.2573334093
 10
634.031272062
 20
-72.5779667678
 10
631.2272816621
 20
-71.1348138213
 10
628.441570611
 20
-69.9353985009
 10
625.6886623164
 20
-68.9859740028
 10
622.9829091674
 20
-68.2914901866
 10
620.3384177081
 20
-67.8555677695
 10
617.7689750924
 20
-67.6804794491
 10
615.2879772044
 20
-67.7671380547
 10
612.9083588183
 20
-68.1150917886
 10
610.6425261624
 20
-68.7225265812
 10
608.5022922392
 20
-69.5862755485
 10
606.4988152373
 20
-70.7018355036
 10
604.642540358
 20
-72.0633904333
 10
602.9431453592
 20
-73.6638418206
 10
601.4094900993
 20
-75.4948456532
 10
600.0495703469
 20
-77.5468559248
 10
598.8704760938
 20
-79.809174404
 10
597.8783545914
 20
-82.2700064099
 10
597.078378302
 20
-84.9165223037
 10
596.4747179314
 20
-87.7349243771
 10
596.0705206854
 20
-90.7105187867
 10
595.8678938612
 20
-93.8277921611
 10
595.8678938612
 20
-97.0704924801
 10
596.0705206854
 20
-100.421713806
 10
596.4747179314
 20
-103.8639844224
 10
597.078378302
 20
-107.3793579242
 10
597.8783545914
 20
-110.9495067818
 10
598.8704760938
 20
-114.555817892
 10
600.0495703469
 20
-118.1794896187
 10
601.4094900993
 20
-121.8016298153
 10
602.9431453592
 20
-125.40335432
 10
604.642540358
 20
-128.965885409
 10
606.4988152373
 20
-132.4706496948
 10
608.5022922392
 20
-135.8993749592
 10
610.6425261624
 20
-139.2341854163
 10
612.9083588183
 20
-142.4576949085
 10
615.2879772044
 20
-145.5530975499
 10
617.7689750924
 20
-148.5042553445
 10
620.3384177081
 20
-151.295782322
 10
622.9829091674
 20
-153.9131247532
 10
625.6886623164
 20
-156.3426370268
 10
628.441570611
 20
-158.5716527906
 10
631.2272816621
 20
-160.5885509886
 10
634.031272062
 20
-162.3828164474
 10
636.8389231033
 20
-163.9450946978
 10
639.6355969934
 20
-165.2672407444
 10
642.4067131696
 20
-166.3423615299
 10
645.1378243154
 20
-167.1648518723
 10
647.8146916817
 20
-167.7304236878
 10
650.4233593217
 20
-168.0361283468
 10
652.9502268501
 20
-168.0803720469
 10
655.3821203498
 20
-167.8629241218
 10
657.706361054
 20
-167.3849182443
 10
659.9108314479
 20
-166.6488465158
 10
661.9840384437
 20
-165.6585464735
 10
663.9151733
 20
-164.4191810831
 10
665.6941679739
 20
-162.937211822
 10
667.3117476109
 20
-161.2203649917
 10
668.7594788997
 20
-159.2775914365
 10
670.0298140398
 20
-157.1190198784
 10
671.116130092
 20
-154.7559041098
 10
672.0127635074
 20
-152.2005643221
 10
672.7150396544
 20
-149.4663228739
 10
673.2192971905
 20
-146.5674348339
 10
673.5229071504
 20
-143.5190136621
 10
673.6242866523
 20
-140.336952415
  0
LWPOLYLINE
  5
FF
330
1F
100
AcDbEntity
  8
0
  6
Continuous
 62
     7
370
    25
100
AcDbPolyline
 90
       80
 70
   128
 43
0.0
 10
666.5532188404
 20
-136.2549118559
 10
666.4526313138
 20
-133.2775002398
 10
666.1515046807
 20
-130.2027768925
 10
665.6517427606
 20
-127.0501812047
 10
664.9565052094
 20
-123.8396449016
 10
664.0701875426
 20
-120.5914660273
 10
662.9983933459
 20
-117.3261806145
 10
661.7478988472
 20
-114.0644328489
 10
660.3266100756
 20
-110.8268445501
 10
658.7435128761
 20
-107.6338847937
 10
657.008616099
 20
-104.5057404992
 10
655.1328883203
 20
-101.4621888022
 10
653.1281884949
 20
-98.5224720164
 10
651.0071909806
 20
-95.7051759778
 10
648.7833054066
 20
-93.028112539
 10
646.4705918935
 20
-90.508206957
 10
644.0836721607
 20
-88.1613908864
 10
641.6376370834
 20
-86.0025016537
 10
639.1479512828
 20
-84.045188452
 10
636.6303553541
 20
-82.3018260454
 10
634.1007663495
 20
-80.7834365324
 10
631.575177145
 20
-79.4996196604
 10
629.0695553289
 20
-78.458492133
 10
626.5997422488
 20
-77.6666362937
 10
624.1813528584
 20
-77.1290585099
 10
621.829676994
 20
-76.8491575216
 10
619.5595827076
 20
-76.8287029528
 10
617.3854222662
 20
-77.0678241241
 10
615.320941412
 20
-77.5650092343
 10
613.3791924579
 20
-78.317114919
 10
611.5724517658
 20
-79.3193861241
 10
609.9121421321
 20
-80.5654861682
 10
608.4087605689
 20
-82.0475368057
 10
607.0718119385
 20
-83.7561680352
 10
605.9097488605
 20
-85.68057734
 10
604.929918272
 20
-87.8085979849
 10
604.1385149773
 20
-90.1267759381
 10
603.5405424829
 20
-92.6204549323
 10
603.1397813635
 20
-95.273869126
 10
602.9387653598
 20
-98.0702427803
 10
602.9387653598
 20
-100.9918963207
 10
603.1397813635
 20
-104.0203581127
 10
603.5405424829
 20
-107.1364812459
 10
604.1385149773
 20
-110.3205645864
 10
604.929918272
 20
-113.5524773343
 10
605.9097488605
 20
-116.8117862965
 10
607.0718119385
 20
-120.0778850725
 10
608.4087605689
 20
-123.330124334
 10
609.9121421321
 20
-126.5479423775
 10
611.5724517658
 20
-129.7109951212
 10
613.3791924579
 20
-132.7992847273
 10
615.320941412
 20
-135.7932860344
 10
617.3854222662
 20
-138.6740700024
 10
619.5595827076
 20
-141.4234233876
 10
621.829676994
 20
-144.0239638925
 10
624.1813528584
 20
-146.4592500628
 10
626.5997422488
 20
-148.7138852353
 10
629.0695553289
 20
-150.7736148804
 10
631.575177145
 20
-152.6254167242
 10
634.1007663495
 20
-154.2575830793
 10
636.6303553541
 20
-155.6597948643
 10
639.1479512828
 20
-156.8231868449
 10
641.6376370834
 20
-157.7404036825
 10
644.0836721607
 20
-158.4056464368
 10
646.4705918935
 20
-158.814709229
 10
648.7833054066
 20
-158.9650058325
 10
651.0071909806
 20
-158.8555860236
 10
653.1281884949
 20
-158.4871415897
 10
655.1328883203
 20
-157.8620019551
 10
657.008616099
 20
-156.9841194538
 10
658.7435128761
 20
-155.8590443417
 10
660.3266100756
 20
-154.4938897059
 10
661.7478988472
 20
-152.8972864935
 10
662.9983933459
 20
-151.079328944
 10
664.0701875426
 20
-149.0515107705
 10
664.9565052094
 20
-146.8266524924
 10
665.6517427606
 20
-144.4188203799
 10
666.1515046807
 20
-141.843237523
 10
666.4526313138
 20
-139.1161875858
 10
666.5532188404
 20
-136.2549118559
  0
LWPOLYLINE
  5
100
330
1F
100
AcDbEntity
  8
0
  6
Continuous
 62
     7
370
    25
100
AcDbPolyline
 90
       18
 70
   128
 43
0.0
 10
428.1871657687
 20
-55.4170397291
 10
428.1849192958
 20
-55.3146698762
 10
428.0059788047
 20
-54.5035763146
 10
427.5478753067
 20
-53.7298800525
 10
426.8293636129
 20
-53.0252563058
 10
425.8798596764
 20
-52.4185524535
 10
424.7382363
 20
-51.9346070225
 10
423.4512316787
 20
-51.5932327957
 10
422.0715359331
 20
-51.408405674
 10
420.6556339691
 20
-51.3876925016
 10
419.2614929794
 20
-51.531941278
 10
417.94618926
 20
-51.8352464416
 10
416.7635714996
 20
-52.2851906431
 10
415.7620562083
 20
-52.8633531142
 10
414.9826455399
 20
-53.5460638154
 10
414.4572486586
 20
-54.3053724903
 10
414.2073753746
 20
-55.1101929526
 10
414.1871657687
 20
-55.4170397291
  0
ENDSEC
  0
SECTION
  2
OBJECTS
  0
DICTIONARY
  5
C
330
0
100
AcDbDictionary
281
     1
  3
ACAD_GROUP
350
D
  3
ACAD_LAYOUT
350
1A
  3
ACAD_MLINESTYLE
350
17
  3
ACAD_PLOTSETTINGS
350
19
  3
ACAD_PLOTSTYLENAME
350
E
  3
ACAD_SCALELIST
350
47
  3
DWGPROPS
350
101
  0
DICTIONARY
  5
D
102
{ACAD_REACTORS
330
C
102
}
330
C
100
AcDbDictionary
281
     1
  0
DICTIONARY
  5
1A
102
{ACAD_REACTORS
330
C
102
}
330
C
100
AcDbDictionary
281
     1
  3
Layout1
350
1E
  3
Layout2
350
26
  3
Model
350
22
  0
DICTIONARY
  5
17
102
{ACAD_REACTORS
330
C
102
}
330
C
100
AcDbDictionary
281
     1
  3
Standard
350
18
  0
DICTIONARY
  5
19
102
{ACAD_REACTORS
330
C
102
}
330
C
100
AcDbDictionary
281
     1
  0
ACDBDICTIONARYWDFLT
  5
E
102
{ACAD_REACTORS
330
C
102
}
330
C
100
AcDbDictionary
281
     1
  3
Normal
350
F
100
AcDbDictionaryWithDefault
340
F
  0
DICTIONARY
  5
47
102
{ACAD_REACTORS
330
C
102
}
330
C
100
AcDbDictionary
281
     1
  3
A0
350
48
  3
A1
350
49
  3
A2
350
4A
  3
A3
350
4B
  3
A4
350
4C
  3
A5
350
4D
  3
A6
350
4E
  3
A7
350
4F
  3
A8
350
50
  3
A9
350
51
  3
B0
350
52
  3
B1
350
53
  3
B2
350
54
  3
B3
350
55
  3
B4
350
56
  3
B5
350
57
  3
B6
350
58
  3
B7
350
59
  3
B8
350
5A
  3
B9
350
5B
  3
C0
350
5C
  3
C1
350
5D
  3
C2
350
5E
  3
C3
350
5F
  3
C4
350
60
  3
C5
350
61
  3
C6
350
62
  3
C7
350
63
  3
C8
350
64
  3
C9
350
65
  3
D0
350
66
  3
D1
350
67
  3
D2
350
68
  0
XRECORD
  5
101
102
{ACAD_REACTORS
330
C
102
}
330
C
100
AcDbXrecord
280
     1
  1
DWGPROPS COOKIE
  2

  3

  4

  6

  7

  8
b.kav
  9

300
=
301
=
302
=
303
=
304
=
305
=
306
=
307
=
308
=
309
=
 40
0.0
 41
2459741.481135579
 42
2459741.481135753
  1

 90
        0
  0
LAYOUT
  5
1E
102
{ACAD_REACTORS
330
1A
102
}
330
1A
100
AcDbPlotSettings
  1

  2
none_device
  4

  6

 40
0.0
 41
0.0
 42
0.0
 43
0.0
 44
0.0
 45
0.0
 46
0.0
 47
0.0
 48
0.0
 49
0.0
140
0.0
141
0.0
142
1.0
143
1.0
 70
   688
 72
     1
 73
     0
 74
     5
  7

 75
    16
147
1.0
148
0.0
149
0.0
100
AcDbLayout
  1
Layout1
 70
     1
 71
     1
 10
0.0
 20
0.0
 11
420.0
 21
297.0
 12
0.0
 22
0.0
 32
0.0
 14
1.0000000000E+20
 24
1.0000000000E+20
 34
1.0000000000E+20
 15
-1.0000000000E+20
 25
-1.0000000000E+20
 35
-1.0000000000E+20
146
0.0
 13
0.0
 23
0.0
 33
0.0
 16
1.0
 26
0.0
 36
0.0
 17
0.0
 27
1.0
 37
0.0
 76
     0
330
1B
  0
LAYOUT
  5
26
102
{ACAD_REACTORS
330
1A
102
}
330
1A
100
AcDbPlotSettings
  1

  2
none_device
  4

  6

 40
0.0
 41
0.0
 42
0.0
 43
0.0
 44
0.0
 45
0.0
 46
0.0
 47
0.0
 48
0.0
 49
0.0
140
0.0
141
0.0
142
1.0
143
1.0
 70
   688
 72
     1
 73
     0
 74
     5
  7

 75
    16
147
1.0
148
0.0
149
0.0
100
AcDbLayout
  1
Layout2
 70
     1
 71
     2
 10
0.0
 20
0.0
 11
0.0
 21
0.0
 12
0.0
 22
0.0
 32
0.0
 14
0.0
 24
0.0
 34
0.0
 15
0.0
 25
0.0
 35
0.0
146
0.0
 13
0.0
 23
0.0
 33
0.0
 16
1.0
 26
0.0
 36
0.0
 17
0.0
 27
1.0
 37
0.0
 76
     0
330
23
  0
LAYOUT
  5
22
102
{ACAD_REACTORS
330
1A
102
}
330
1A
100
AcDbPlotSettings
  1

  2
none_device
  4
Letter_(8.50_x_11.00_Inches)
  6

 40
6.35
 41
6.35
 42
6.35000508
 43
6.35000508
 44
215.9
 45
279.4
 46
0.0
 47
0.0
 48
0.0
 49
0.0
140
0.0
141
0.0
142
1.0
143
1.0
 70
  1712
 72
     1
 73
     0
 74
     0
  7

 75
     0
147
1.0
148
0.0
149
0.0
100
AcDbLayout
  1
Model
 70
     1
 71
     0
 10
0.0
 20
0.0
 11
279.4
 21
215.9
 12
0.0
 22
0.0
 32
0.0
 14
0.0
 24
0.0
 34
0.0
 15
279.4
 25
215.9
 35
0.0
146
0.0
 13
0.0
 23
0.0
 33
0.0
 16
1.0
 26
0.0
 36
0.0
 17
0.0
 27
1.0
 37
0.0
 76
     0
330
1F
331
29
  0
MLINESTYLE
  5
18
102
{ACAD_REACTORS
330
17
102
}
330
17
100
AcDbMlineStyle
  2
Standard
 70
     0
  3

 62
   256
 51
90.0
 52
90.0
 71
     2
 49
0.5
 62
   256
  6
BYLAYER
 49
-0.5
 62
   256
  6
BYLAYER
  0
ACDBPLACEHOLDER
  5
F
102
{ACAD_REACTORS
330
E
102
}
330
E
  0
SCALE
  5
48
102
{ACAD_REACTORS
330
47
102
}
330
47
100
AcDbScale
 70
     0
300
1:1
140
1.0
141
1.0
290
     1
  0
SCALE
  5
49
102
{ACAD_REACTORS
330
47
102
}
330
47
100
AcDbScale
 70
     0
300
1:2
140
1.0
141
2.0
290
     0
  0
SCALE
  5
4A
102
{ACAD_REACTORS
330
47
102
}
330
47
100
AcDbScale
 70
     0
300
1:4
140
1.0
141
4.0
290
     0
  0
SCALE
  5
4B
102
{ACAD_REACTORS
330
47
102
}
330
47
100
AcDbScale
 70
     0
300
1:5
140
1.0
141
5.0
290
     0
  0
SCALE
  5
4C
102
{ACAD_REACTORS
330
47
102
}
330
47
100
AcDbScale
 70
     0
300
1:8
140
1.0
141
8.0
290
     0
  0
SCALE
  5
4D
102
{ACAD_REACTORS
330
47
102
}
330
47
100
AcDbScale
 70
     0
300
1:10
140
1.0
141
10.0
290
     0
  0
SCALE
  5
4E
102
{ACAD_REACTORS
330
47
102
}
330
47
100
AcDbScale
 70
     0
300
1:16
140
1.0
141
16.0
290
     0
  0
SCALE
  5
4F
102
{ACAD_REACTORS
330
47
102
}
330
47
100
AcDbScale
 70
     0
300
1:20
140
1.0
141
20.0
290
     0
  0
SCALE
  5
50
102
{ACAD_REACTORS
330
47
102
}
330
47
100
AcDbScale
 70
     0
300
1:30
140
1.0
141
30.0
290
     0
  0
SCALE
  5
51
102
{ACAD_REACTORS
330
47
102
}
330
47
100
AcDbScale
 70
     0
300
1:40
140
1.0
141
40.0
290
     0
  0
SCALE
  5
52
102
{ACAD_REACTORS
330
47
102
}
330
47
100
AcDbScale
 70
     0
300
1:50
140
1.0
141
50.0
290
     0
  0
SCALE
  5
53
102
{ACAD_REACTORS
330
47
102
}
330
47
100
AcDbScale
 70
     0
300
1:100
140
1.0
141
100.0
290
     0
  0
SCALE
  5
54
102
{ACAD_REACTORS
330
47
102
}
330
47
100
AcDbScale
 70
     0
300
2:1
140
2.0
141
1.0
290
     0
  0
SCALE
  5
55
102
{ACAD_REACTORS
330
47
102
}
330
47
100
AcDbScale
 70
     0
300
4:1
140
4.0
141
1.0
290
     0
  0
SCALE
  5
56
102
{ACAD_REACTORS
330
47
102
}
330
47
100
AcDbScale
 70
     0
300
8:1
140
8.0
141
1.0
290
     0
  0
SCALE
  5
57
102
{ACAD_REACTORS
330
47
102
}
330
47
100
AcDbScale
 70
     0
300
10:1
140
10.0
141
1.0
290
     0
  0
SCALE
  5
58
102
{ACAD_REACTORS
330
47
102
}
330
47
100
AcDbScale
 70
     0
300
100:1
140
100.0
141
1.0
290
     0
  0
SCALE
  5
59
102
{ACAD_REACTORS
330
47
102
}
330
47
100
AcDbScale
 70
     0
300
1/128" = 1'-0"
140
0.0078125
141
12.0
290
     0
  0
SCALE
  5
5A
102
{ACAD_REACTORS
330
47
102
}
330
47
100
AcDbScale
 70
     0
300
1/64" = 1'-0"
140
0.015625
141
12.0
290
     0
  0
SCALE
  5
5B
102
{ACAD_REACTORS
330
47
102
}
330
47
100
AcDbScale
 70
     0
300
1/32" = 1'-0"
140
0.03125
141
12.0
290
     0
  0
SCALE
  5
5C
102
{ACAD_REACTORS
330
47
102
}
330
47
100
AcDbScale
 70
     0
300
1/16" = 1'-0"
140
0.0625
141
12.0
290
     0
  0
SCALE
  5
5D
102
{ACAD_REACTORS
330
47
102
}
330
47
100
AcDbScale
 70
     0
300
3/32" = 1'-0"
140
0.09375
141
12.0
290
     0
  0
SCALE
  5
5E
102
{ACAD_REACTORS
330
47
102
}
330
47
100
AcDbScale
 70
     0
300
1/8" = 1'-0"
140
0.125
141
12.0
290
     0
  0
SCALE
  5
5F
102
{ACAD_REACTORS
330
47
102
}
330
47
100
AcDbScale
 70
     0
300
3/16" = 1'-0"
140
0.1875
141
12.0
290
     0
  0
SCALE
  5
60
102
{ACAD_REACTORS
330
47
102
}
330
47
100
AcDbScale
 70
     0
300
1/4" = 1'-0"
140
0.25
141
12.0
290
     0
  0
SCALE
  5
61
102
{ACAD_REACTORS
330
47
102
}
330
47
100
AcDbScale
 70
     0
300
3/8" = 1'-0"
140
0.375
141
12.0
290
     0
  0
SCALE
  5
62
102
{ACAD_REACTORS
330
47
102
}
330
47
100
AcDbScale
 70
     0
300
1/2" = 1'-0"
140
0.5
141
12.0
290
     0
  0
SCALE
  5
63
102
{ACAD_REACTORS
330
47
102
}
330
47
100
AcDbScale
 70
     0
300
3/4" = 1'-0"
140
0.75
141
12.0
290
     0
  0
SCALE
  5
64
102
{ACAD_REACTORS
330
47
102
}
330
47
100
AcDbScale
 70
     0
300
1" = 1'-0"
140
1.0
141
12.0
290
     0
  0
SCALE
  5
65
102
{ACAD_REACTORS
330
47
102
}
330
47
100
AcDbScale
 70
     0
300
1-1/2" = 1'-0"
140
1.5
141
12.0
290
     0
  0
SCALE
  5
66
102
{ACAD_REACTORS
330
47
102
}
330
47
100
AcDbScale
 70
     0
300
3" = 1'-0"
140
3.0
141
12.0
290
     0
  0
SCALE
  5
67
102
{ACAD_REACTORS
330
47
102
}
330
47
100
AcDbScale
 70
     0
300
6" = 1'-0"
140
6.0
141
12.0
290
     0
  0
SCALE
  5
68
102
{ACAD_REACTORS
330
47
102
}
330
47
100
AcDbScale
 70
     0
300
1'-0" = 1'-0"
140
12.0
141
12.0
290
     0
  0
ENDSEC
  0
EOF
